Home » A » Atreyu »

Atreyu - Honor Tabs

Artists:  A B C D E F G H I J K L M N O P Q R S T U V W X Y Z # 

Honor Tabs

(ver. 2) Click to play this song!
Atreyu
 Rating:
4/5 (4 votes)
                This is the tab for Atreyu's "Honor". I think its accurate or at least better than the 
dont have my guitar with me right now, so i apologize for any obvious mistakes.

|-----------------------------------------------------------------|
|-----------------------------------------------------------------|
|-----------------------------------------------------------------|
|-----------------------------------------------------------------|
|-------5-------000-000--------5-------5----------3---------------|
|-0h3h6---6p5-3-000-000--0h3h6---6p5-3---6p5--0h3---5-------------|7 times
                ... ...
after playing the riff 7 times you play it one more time but it ends like this:

|-----------------------------------------------------------------|
|-----------------------------------------------------------------|
|-----------------------------------------------------------------|
|-----------------------------------------------------------------|
|-------5-------000-000--------5----------------------------------|
|-0h3h6---6p5-3-000-000--0h3h6---6p5-3----------------------------|
                ... ...

the chorus goes:

|-----------------------------------------------------------------|
|-----------------------------------------------------------------|
|---------------------------------555555555555555-----------------|
|-888888888888888-000000000000000-555555555555555-555555555555555-|2 times
|-888888888888888-000000000000000-333333333333333-555555555555555-|
|-888888888888888-000000000000000-----------------555555555555555-|

|-----------------------------------------------------------------|
|-----------------------------------------------------------------|
|-----------------------------------------------------------------|
|------------------------------------------------------0~---------|
|-------5-------000-000--------5-------5----------3----0~---------|
|-0h3h6---6p5-3-000-000--0h3h6---6p5-3---6p5--0h3---5--0~---------|
                ... ...

|-----------------------------------------------------------------|
|-----------------------------------------------------------------|
|--------------------777777777---------777777777------------------|
|-0~---6~---0~---6~--xxxxxxxxx-6666666-xxxxxxxxx------------------|
|-0~---6~---0~---6~--555555555-xxxxxxx-555555555------------------|
|-0~---6~---0~---6~------------6666666----------------------------|

|-----------------------------------------------------------------|
|-----------------------------------------------------------------|
|---------------------------------555555555555555-----------------|
|-888888888888888-000000000000000-555555555555555-555555555555555-|2 times
|-888888888888888-000000000000000-333333333333333-555555555555555-|
|-888888888888888-000000000000000-----------------555555555555555-|


|-----------------------------------------------------------------|
|-----------------------------------------------------------------|
|-----------------------------------------------------------------|
|-88888888-1010101010101010---------------------------------------|(10's)
|-88888888-1010101010101010---------------------------------------|
|-88888888-1010101010101010---------------------------------------|

|-----------------------------------------------------------------|
|-----------------------------------------------------------------|
|---------------------------77777777-1010101010101010-------------|
|-88888888-1010101010101010-77777777-1010101010101010-------------|
|-88888888-1010101010101010-55555555-8-8-8-8-8-8-8-8--------------|
|-88888888-1010101010101010---------------------------------------|

|-----------------------------------------------------------------|
|-----------------------------------------------------------------|
|---------------------------7777777777777777----------------------|
|-88888888-1010101010101010-7777777777777777-10-------------------|
|-88888888-1010101010101010-5555555555555555-10-------------------|
|-88888888-1010101010101010------------------10-------------------|

|-----------------------------------------------------------------|
|-----------------------------------------------------------------|
|---------------------------77777777------------------------------|
|-88888888-1010101010101010-77777777-77777777-88888888-77777777---|
|-88888888-1010101010101010-55555555-77777777-88888888-77777777---|
|-88888888-1010101010101010----------77777777-88888888-77777777---|
                                              . . . .  . . . .
|-----------------------------------------------------------------|
|-----------------------------------------------------------------|
|-----------------------------------------------------------------|
|-----------------------------------------------------------------|
|-------5-------000-000--------5-------5----------3---------------|
|-0h3h6---6p5-3-000-000--0h3h6---6p5-3---6p5--0h3---5-------------|
                ... ...
|-----------------------------------------------------------------|
|-----------------------------------------------------------------|
|---------------------------------555555555555555-----------------|
|-888888888888888-000000000000000-555555555555555-555555555555555-|
|-888888888888888-000000000000000-333333333333333-555555555555555-|
|-888888888888888-000000000000000-----------------555555555555555-|

|---------------------------------|
|---------------------------------|
|-7777--9999--10101010-171717-----|
|-xxxx--xxxx--x-x-x-x--xxxxxx-----|
|-5555--7777--8-8-8-8--151515-----|
|---------------------------------|

|------------------------------------------------------------------------|
|------------------------------------------------------------------------|
|-14141414141414141414141414141414141414141414141414---------------------|
|-xxxxxxxxxxxxxxxxxxxxxxxxxxxxxxxxxxxxxxxxxxxxxxxxxx--------|       |14--|
|-12121212121212121212121212121212121212121212121212--------|       |x---|
|-----------------------------------------------------------|repeat |12--| until the intro riff:

|-----------------------------------------------------------------|
|-----------------------------------------------------------------|
|-----------------------------------------------------------------|
|-----------------------------------------------------------------|
|-------5-------000-000--------5-------5----------3---------------|
|-0h3h6---6p5-3-000-000--0h3h6---6p5-3---6p5--0h3---5-------------|
                ... ...

|-----------------------------------------------------------------|
|-----------------------------------------------------------------|
|-----------------------------------------------------------------|
|---------------------------------------------0000----------------|
|-------5-------000-000--------5-------5------0000----------------|
|-0h3h6---6p5-3-000-000--0h3h6---6p5-3---6p5--0000----------------|
                ... ...                       ....

             yea...leave any comments i know its two guitars but im too lazy to tab out both...
            
Submit corrections

↑ Back to top | Tablatures and chords for acoustic guitar and electric guitar, ukulele, drums are parodies/interpretations of the original songs. You may use it for private study, scholarship, research or language learning purposes only