» » »

Atomsko Skloniste - Rahela Tabs

Artists:  A B C D E F G H I J K L M N O P Q R S T U V W X Y Z # 

Rahela Tabs

(ver. 1) Click to play this song!
Atomsko Skloniste
 Rating:
4/5 (4 votes)

 Rahela lessons Tabs too difficult? Try these video lessons and learn fast
 
                Atomsko Skloniste / Rahela:    
  

fig 1
5* znaci drati prst na 5 polju a vibrator-ruckom :) zatezati i odpustati zicu
-----------------------------
-8-7------8s10---------------
-7--------7------------------
-7--------7------------------
-5*------------5*------------
-----------------------------

Zazelio sam kranuti
Tvojim putem
Na obale daleke
Gdje kolibe mirisu na rue
Burmanskim putem
Stici cu pred zid placa
Uzet te za ruku
I povesti da nitko nezna


prelaz F,C,D

D                    G
Snivat cemo cijelim putem
    H
Na lezaju od palmi
U smiraj bijelog dana
Slusat cemo trube Jerihona
Puknut ce nesto tada
U glavi mojoj...
Zastat ce nicija ruka
U kosi tvojoj...

 D            G        H  
---------------3------------
---7---------3-3------4-----
-5h7---------3h4------4-----
-5h7---------3h5----1h4-----
-5-5---------3-3----1-1-----
----------------------------


ref

C         D     fig 3
Putujemo Rahela
Putujemo do vjecnosti
Putujemo Rahela
Na obale Goe
...

fig 3             |-zadnji put do ovdje
-5-------------------------------
---8-6---8-6------5h6h8----------
-------7-----7 5-----------------
---------------------------------
---------------------------------
---------------------------------
            
Submit corrections


        Rahela lessons Hard to play? Try these video lessons and learn fast Rahela lessons
        
↑ Back to top | Tablatures and chords for acoustic guitar and electric guitar, ukulele, drums are parodies/interpretations of the original songs. You may use it for private study, scholarship, research or language learning purposes only