» » »

Atkins Chet - Half Moon Tabs

Artists:  A B C D E F G H I J K L M N O P Q R S T U V W X Y Z # 

Half Moon Tabs

(ver. 1) Click to play this song!
Atkins Chet
 Rating:
4/5 (4 votes)

 Half Moon lessons Tabs too difficult? Try these video lessons and learn fast
 
                Tuning:standard (EADGBe)

e|-----------------------4---------------------------------------------------|
B|-----------5-----7-------5--7---------5----7----------------7--7--9-7--7---|
G|-------------6-----6------6-------------6----6---------------7--7----7--7--|
D|--------------7-----7--------------------7----7-6-------------9--9----9--9-|
A|--------0---------------------------0--------------------2-----------------|
E|--0-2-4-------------------------02-4---------------0-2-4-------------------|

e|-----------------------4---------------------------------------------------|
B|-----------------5--7----5-6---------5--7----------12101213121012(\14)-1413|
G|------------------6--6----6-----------6--6-7-6-4---------------------------|
D|-9(\11)------------7--7----------------7--7--------------------------------|
A|---------------0------------------0----------------------------------------|
E|---------0-2-4---------------02-4------------------------------------------|

e|-----------12-10--------------------------575--------------575------------7|
B|1415141314-------12-10-9-----910---------7---7--6-7-------7---7--------5-8-|
G|-------------------------911------------7-----7-6-7------7-----7-6----6----|
D|-----------------------------------3(\7)------------3(\7)--------7--7------|
A|---------------------------------------------------------------------------|
E|---------------------------------------------------------------------------|

e|------------------7---------------575--------------575--7--109-10-12-109-10|
B|-8-5-----------5-8-85-6-7--------7---7--6-7-------7---7--------------------|
G|-----8-5-6----6-----------------7-----7-6-7------7-----7-------------------|
D|-------6-7--7--------------3(\7)------------3(\7)--------------------------|
A|---------------------------------------------------------------------------|
E|---------------------------------------------------------------------------|

e|(\14)-1413-14(\17)-17-15---------------------------------------------------|
B|-------------------------17-1514------1415---------------------------------|
G|---------------------------------1416--------------------------------------|
D|---------------------------------------------------------------------------|
A|---------------------------------------------------------------------------|
E|---------------------------------------------------------------------------|

| /  slide up
| \  slide down
| h  hammer-on
| p  pull-off
| ~  vibrato
| +  harmonic
| x  Mute note

NOTE:
at the ending where u see on the "e" string where u start at fret 10, after u finish the whole song
u can go back to that fret and pluck it slowly so that it will have a nice ending..
            
Submit corrections


        Half Moon lessons Hard to play? Try these video lessons and learn fast Half Moon lessons
        
↑ Back to top | Tablatures and chords for acoustic guitar and electric guitar, ukulele, drums are parodies/interpretations of the original songs. You may use it for private study, scholarship, research or language learning purposes only