» » »

A Thorn For Every Heart - You're The One Tabs

Artists:  A B C D E F G H I J K L M N O P Q R S T U V W X Y Z # 

You're The One Tabs

(ver. 1) Click to play this song!
A Thorn For Every Heart
 Rating:
4/5 (4 votes)


 You're The One lessons Tabs too difficult? Try these video lessons and learn fast
 
                album:it's hard to move you


tuning:half-step down ( just subtract one one each note if you wanna play it
                        in standard :D )
legend:

      . - palm mute
      ~ - let it ring
     ( )- optional note

-------------------------------------------------------------------------
-------------------------------------------------------------------------
-------------------------------------------------------------------------
-------------------------------------------------------------------------
-------------------------------------------------------------------------
-------------------------------------------------------------------------

intro: gtr 2

e|--------------------------------------------------------------|
B|--------------------------------------------------------------|
G|--4444--666--3333333333333---------4444--666--3333333333333---|
D|-------------------------------4------------------------------|
A|--------------------------------------------------------------|
E|--------------------------------------------------------------|


then...

e|-----------------------|       |-------------------------------|
B|-----------------------|       |-------------------------------|
G|-----4444--666--33333--|       |-------------------------------|
D|--4--------------------| (2x)  |--4--6-666666666--8888888888---|
A|-----------------------|       |-------------------------------|   
E|-----------------------|       |-------------------------------|
                                         .........  ..........


Verse 1:  
   gtr 1

e|--------------------------------------------------------|
B|--------------------------------------------------------|
G|---------------9999999999--5555555555--44444--7777777---|
D|--55555555555--9999999999--5555555555--44444--7777777---| (2x)
A|--55555555555--7777777777--3333333333--22222--5555555---|
E|--33333333333-------------------------------------------|

   gtr 2

e|--999--6666666666--|      |--999--6666---999--6666-----------------------|
B|-------------------|      |--------------------------7777--99999--111111-|
G|-------------------| (2x) |----------------------------------------------| 
D|-------------------|      |----------------------------------------------|
A|-------------------|      |----------------------------------------------|
E|-------------------|      |----------------------------------------------|


Pre-Chorus: gtr 1 only

e|---------------------------------------------------|
B|---------------------------------------------------|
G|--------------7777777777--9999--12121212--555555---|
D|--2222222222--7777777777--9999--12121212--555555---|
A|--2222222222--5555555555--7777--10101010--333333---|
E|--0000000000---------------------------------------|

then...

e|------------------------------------------------|
B|------------------------------------------------|
G|--------------7777777777--9~--12~--5~-----------|
D|--2222222222--7777777777--9~--12~--5~-----------|
A|--2222222222--5555555555--7~--10~--3~-----------|
E|--0000000000------------------------------------|


Chorus:

   gtr 1

e|-----------------------------------------------|
B|-----------------------------------------------|
G|------------99999999--55555555--4444--777777---|
D|--55555555--99999999--55555555--4444--777777---| (2x)
A|--55555555--77777777--55555555--2222--555555---|
E|--33333333-------------------------------------|



Pre-Verse: gtr 2

e|------------------------------------------------------------|
B|------------------------------------------------------------|
G|--4444--666--3333333333333----------------------------------|
D|-------------------------------4--6-6666666666--8888888888--|
A|------------------------------------------------------------|
E|------------------------------------------------------------|
                                      ..........  ..........


repeat verse
repeat pre-chorus
repeat chorus



Bridge: gtr 2 (2x)

e|--------------------------------------------------------------|
B|--------------------------------------------------------------|
G|--4444--666--3333333333333---------4444--666--3333333333333---|
D|-------------------------------4------------------------------|
A|--------------------------------------------------------------|
E|--------------------------------------------------------------|


then...

e|-----------------------|       |-------------------------------|
B|-----------------------|       |-------------------------------|
G|-----4444--666--33333--|       |-------------------------------|
D|--4--------------------| (2x)  |--4--6-666666666--8888888888---|
A|-----------------------|       |-------------------------------|   
E|-----------------------|       |-------------------------------|
                                         .........  ..........


piano part: (guitar 1 can play this)  

e|----------------------------------------|
B|--14--11~--9-11-9----16--13~--16-14-13--|
G|----------------------------------------|
D|----------------------------------------|
A|----------------------------------------|
E|----------------------------------------|

then...

e|------10-----10-----10-----10-----10--|
B|----10-----10-----10-----10-----10----|
G|--12-----12-----12-----12----12-------|
D|--------------------------------------|
A|--------------------------------------|
E|--------------------------------------|

continued...

e|------10---------10---------10---------10---------10-----|
B|----10--(10)---10--(10)---10--(10)---10--(10)---10--(9)--|
G|--12---------12---------12---------12---------12---------|
D|---------------------------------------------------------|
A|---------------------------------------------------------|
E|---------------------------------------------------------|

[NOTE: guitar 1 was really playing the verse chords(G-E5-C-B5-D)with palm mute
on the bridge,cause there is really a piano playing this.but still,you can just 
play this if you want.it's up to you]

final chorus:

e|-----------------------------------------------|
B|-----------------------------------------------|
G|------------99999999--55555555--4444--777777---|
D|--55555555--99999999--55555555--4444--777777---| (2x)
A|--55555555--77777777--55555555--2222--555555---|
E|--33333333-------------------------------------|

end on:

e|----------||
B|----------||
G|----------||
D|--5~------||
A|--5~------||
E|--3~------||
_____________________________________________________________________________

uhmmm...so, i already fixed this 5x..so i know that this tab is getting better
everytime...so you can always trust this...hahah...by the way,it's hard to
explain how the strumming works.it's a little difficult when drums comes in
(specailly in the verse and chorus,:D)but do not worry if your gonna play 
alone with guitars.hahah ...
_____________________________________________________________________________

dropdead r+cks! "oh yeah, i remember the days, :)but we didn't
improve after more that two years"
LONG LIVE EARTH!XD 2k11
            
Submit corrections



        You're The One lessons Hard to play? Try these video lessons and learn fast You're The One lessons
        
↑ Back to top | Tablatures and chords for acoustic guitar and electric guitar, ukulele, drums are parodies/interpretations of the original songs. You may use it for private study, scholarship, research or language learning purposes only