» » »

Athlete - Flying Over Bus Stops Tabs

Artists:  A B C D E F G H I J K L M N O P Q R S T U V W X Y Z # 

Flying Over Bus Stops Tabs

(ver. 1) Click to play this song!
Athlete
 Rating:
4/5 (4 votes)

 Flying Over Bus Stops lessons Tabs too difficult? Try these video lessons and learn fast
 
                --------------------------------------------------------------
                 FLYING OVER BUS STOPS - Athlete
--------------------------------------------------------------


This is similar to the way Joel plays it live on the acoustic:

CAPO 4 - All numbering relative to capo

General chord shapes are - C: X32010 (sometimes Cadd9: X32030)
                           Gsus4: 32001X or 3X001X
                           Am7: 00201X

The above chord shapes are a guide, but different strings 
are plucked/strummed in each shape depending on the part of the 
song. For example the open 6th string is plucked in the first part of 
the song but you might just want to play the standard Am7 shape 
(X02010) when the strumming kicks in - im not sure which is better. 
In the shapes above i've included the strings I tend to mute when 
strumming for this song but you can just play the regular shapes, 
whatever you prefer.

The pattern of C, Gsus4, Am7, Gsus4 repeats throughout the whole song.  

INTRO/VERSE/CHORUS

Capo 4

e------------------(0)-(0)-----/---------------------------------/
B---1---1---1---1---3---3---1--/---1---1---1---1---0---0---0---0-/
G---0---0---0---0---0---0---0--/---0---0---0---0---0---0---0---0-/
D------------------------------/---------------------------------/
A-3---3---3---3---3---3---3----/---------------------------------/
E------------------------------/-3---3---3---3---3---3---3---3---/


e------------------------------/---------------------------------/
B---1---1---1---1---1---1---1--/---1---1---1---1---1---3---3---1-/
G---0---0---0---0---0---0---0--/---0---0---0---0---0---0---0---0-/
D------------------------------/---------------------------------/
A------------------------------/---------------------------------/
E-0---0---0---0---0---0---0----/-3---3---3---3---3---3---3---3---/


This is one example of what's played in the intro, with little 
variations on the chords mainly done with varying what you do on 
the B string and adding in the high open e string on the C shape 
for a couple of beats.  These little variations on the B string 
don't necessarily carry through the whole song (some might), there's 
no point trying to tab exactly what little variations joel does cos 
it changes all the time and its something you can play with and make it your own.

That's pretty much it, the C, Gsus4, Am7, Gsus4 progression is 
just strummed for the second part of the song, listen to it 
this tab goes with the album version) to see how it all fits.

Feel free to add comments, good to know what you think, any ideas for variations etc
            
Submit corrections


        Flying Over Bus Stops lessons Hard to play? Try these video lessons and learn fast Flying Over Bus Stops lessons
        
↑ Back to top | Tablatures and chords for acoustic guitar and electric guitar, ukulele, drums are parodies/interpretations of the original songs. You may use it for private study, scholarship, research or language learning purposes only