Home » A » Athenaeum »

Athenaeum - What I Didnt Know Tabs

Artists:  A B C D E F G H I J K L M N O P Q R S T U V W X Y Z # 

What I Didnt Know Tabs

(ver. 1) Click to play this song!
Athenaeum
Rhythm Intro: (4x)
e|---------------------------------------------------------------------------|
B|---------------------------------------------------------------------------|
G|-4-4-4--4-4---4-4-4--4-4---4-4-4--4-4---4-4-4--4-4-------------------------|
D|-4-4-4--4-4---4-4-4--4-4---4-4-4--4-4---4-4-4--4-4-------------------------|
A|-2-2-2--2-2-----------------------------x-x-x--x-x-------------------------|
E|--------------4-4-4--4-4---2-2-2--2-2---0-0-0--0-0-------------------------|

Lead Intro: (3x)
e|--------2------------2-----------2---4--2--0-------------------------------|
B|------0---0--------0---0-------0---0---------4--2--------------------------|
G|--3h4-------4--3h4-------4-3h4---------------------------------------------|
D|---------------------------------------------------------------------------|
A|---------------------------------------------------------------------------|
E|---------------------------------------------------------------------------|

Verse: Rhythm (2x)
e|---------------------------------------------------------------------------|
B|---------------------------------------------------------------------------|
G|-----4-----4-4--------4-----4-4---------4-----4-4--------4-----3-4---------|
D|-----4-----4-4--------4-----4-4---------4-----4-4--------4-----4-4---------|
A|-2-2---2-2-----------------------------------------------------------------|
E|-------------------4-4---4-4---------2-2---2-2--------0-0---0-0------------|

Pre-Chorus: Rhythm (2x)
e|---------------------------------------------------------------------------|
B|-----0---------0---------0---------0---------------------------------------|
G|-------3---------3---------3---------3-------------------------------------|
D|---4---------4---------4---------4-----------------------------------------|
A|---------------------------------------------------------------------------|
E|-2---------4---------0---------2-------------------------------------------|

Chorus: Rhythm (2x)
e|---------------------------------------------------------------------------|
B|---------------------------------------------------------------------------|
G|-4-4-4--4-4---4-4-4--4-4---4-4-4--4-4---4-4-4--3-4-------------------------|
D|-4-4-4--4-4---4-4-4--4-4---4-4-4--4-4---4-4-4--4-4-------------------------|
A|-2-2-2--2-2-----------------------------2-2-2--2-2-------------------------|
E|--------------4-4-4--4-4---2-2-2--2-2---0-0-0--0-0-------------------------|

Lead Intro Riff (1x)

Verse: Rhythm (2x)
e|---------------------------------------------------------------------------|
B|---------------------------------------------------------------------------|
G|-----4-----4-4--------4-----4-4---------4-----4-4--------4-----3-4---------|
D|-----4-----4-4--------4-----4-4---------4-----4-4--------4-----4-4---------|
A|-2-2---2-2-----------------------------------------------------------------|
E|-------------------4-4---4-4---------2-2---2-2--------0-0---0-0------------|

Pre-Chorus: Rhythm (2x)
e|---------------------------------------------------------------------------|
B|-----0---------0---------0---------0---------------------------------------|
G|-------3---------3---------3---------3-------------------------------------|
D|---4---------4---------4---------4-----------------------------------------|
A|---------------------------------------------------------------------------|
E|-2---------4---------0---------2-------------------------------------------|

Chorus: Rhythm (2x)
e|---------------------------------------------------------------------------|
B|---------------------------------------------------------------------------|
G|-4-4-4--4-4---4-4-4--4-4---4-4-4--4-4---4-4-4--3-4-------------------------|
D|-4-4-4--4-4---4-4-4--4-4---4-4-4--4-4---4-4-4--4-4-------------------------|
A|-2-2-2--2-2-----------------------------2-2-2--2-2-------------------------|
E|--------------4-4-4--4-4---2-2-2--2-2---0-0-0--0-0-------------------------|

Lead Intro Riff (1x)
   
Chorus: Rhythm (3x) including during the solo. 

E-------------------------------------------------------------------------------|
B-------------------------------------------------------------------------------|
G-------------------------4------4---6--4--6(1/2b)-4--6~~-4--6--4--6(1/2b)-4----|
D------4-4------4-4---4h6----4h6----------------------------------------------6-|
A--4h6------4h6-----------------------------------------------------------------|
E-------------------------------------------------------------------------------|

E----------------------------------------------------------------------------------|
B--4/5---5--4-4--2--4--------------------------------------------------------------|
G--4/4--4--4-4--4--4--------------------------4------------------------------4-----|
D------------------------4--6(p/o)-(4)---4--6---6~~---4--6-(p/o)-(4)---4+--6---6~~-|
A-------------------------------------6-----------------------------6--------------|
E----------------------------------------------------------------------------------|

E------------------------------------------------------------------------|
B------4---------4--4------4---------------------------------------------|
G------4---------4--4------4---------------4--6--6(1/2b)-(p/o 4)---4~~~~~|
D----6----4 h 6---------6--------------6-------------------------6-------|
A------------------------------------------------------------------------|
E------------------------------------------------------------------------|

Pre-Chorus: Rhythm (2x)
e|---------------------------------------------------------------------------|
B|-----0---------0---------0---------0---------------------------------------|
G|-------3---------3---------3---------3-------------------------------------|
D|---4---------4---------4---------4-----------------------------------------|
A|---------------------------------------------------------------------------|
E|-2---------4---------0---------2-------------------------------------------|

Chorus: Rhythm (5x)
e|---------------------------------------------------------------------------|
B|---------------------------------------------------------------------------|
G|-4-4-4--4-4---4-4-4--4-4---4-4-4--4-4---4-4-4--3-4-------------------------|
D|-4-4-4--4-4---4-4-4--4-4---4-4-4--4-4---4-4-4--4-4-------------------------|
A|-2-2-2--2-2-----------------------------2-2-2--2-2-------------------------|
E|--------------4-4-4--4-4---2-2-2--2-2---0-0-0--0-0-------------------------|

Lead Intro: LAST (2x)
            
Submit corrections

↑ Back to top | Tablatures and chords for acoustic guitar and electric guitar, ukulele, drums are parodies/interpretations of the original songs. You may use it for private study, scholarship, research or language learning purposes only