» » »

Aterciopelados - Candela Tabs

Artists:  A B C D E F G H I J K L M N O P Q R S T U V W X Y Z # 

Candela Tabs

(ver. 1) Click to play this song!
Aterciopelados
 Rating:
4/5 (4 votes)

 Candela lessons Tabs too difficult? Try these video lessons and learn fast
 
                The numbers in parenthesis mean you have to bend the string 1 step. 
You should know the rest of the symbols, seeing they are very common.


Rythm Guitar
(repeat this at the beggining of every measure)
E ----------------------------------------------------------------------------------
B ----------------------------------------------------------------------------------
G ----------------------------------------------------------------------------------
D ---2--------2---------------------------------------------------------------------
A ---2--------2---------------------------------------------------------------------
E ---0--------0---------------------------------------------------------------------

Lead Guitar
First Part
E ----------------------------------------------------------------------------------
B ---(7)1---7----5---3--------3---5---8--------(7)1---7----5---3--------------------
G ----------------------------------------------------------------------------------
D ----------------------------------------------------------------------------------
A ----------------------------------------------------------------------------------
E ----------------------------------------------------------------------------------



E ----------------------------------------------------------------------------------
B ------------------------------------------------------8---7-----------------------
G ----4/7---9---4~------2/4/2~--------4---4---4------------4------------------------
D ----------------------------------------------------------------------------------
A ----------------------------------------------------------------------------------
E ----------------------------------------------------------------------------------



E ----------------------------------------------------------------------------------
B ----------------------------------------------------------------------------------
G ----4---2---2---2---4/0-----------------------------------------------------------
D -----------------------------2~---------------------------------------------------
A ----------------------------------------------------------------------------------
E ----------------------------------------------------------------------------------



Second Part
E -----4~-------2/4/2-----|---2---------------------------------------------------
B ------------------------|-------2---2---2---2---2---2---2/5---5~------------------
G ------------------------|---------------------------------------------------------
D ------------------------|---------------------------------------------------------
A ------------------------|---------------------------------------------------------
E ------------------------|---------------------------------------------------------
            
Submit corrections


        Candela lessons Hard to play? Try these video lessons and learn fast Candela lessons
        
↑ Back to top | Tablatures and chords for acoustic guitar and electric guitar, ukulele, drums are parodies/interpretations of the original songs. You may use it for private study, scholarship, research or language learning purposes only