Home » A » Ataxia »

Ataxia - Addition Tabs

Artists:  A B C D E F G H I J K L M N O P Q R S T U V W X Y Z # 

Addition Tabs

(Version #2)
Ataxia
e|-14------12----------------------------------------------------------------|
B|-----------------15------12------15------14------14--------14--------------|
G|---------------------------------------------------------------------------|
D|-------------------------------------11------11----------------11----------| x2
A|-----14------14------14------14--------------------------------------------|
E|---------------------------------------------------------------------------|



e|-19------17----------------------------------------------------------------|
B|-----------------20------17------20------19------19--------19--------------|
G|---------------------------------------------------------------------------| x2
D|-----19------19------17------17------16------16----------------16----------|
A|---------------------------------------------------------------------------|
E|---------------------------------------------------------------------------|

            
Submit corrections

↑ Back to top | Tablatures and chords for acoustic guitar and electric guitar, ukulele, drums are parodies/interpretations of the original songs. You may use it for private study, scholarship, research or language learning purposes only