Home » A » A Taste Of Honey »

A Taste Of Honey - Boogie Oogie Oogie Tabs

Artists:  A B C D E F G H I J K L M N O P Q R S T U V W X Y Z # 

Boogie Oogie Oogie Tabs

(ver. 1) Click to play this song!
A Taste Of Honey
Gtr I (E A D G B E) - 'Electric Guitar (clean)'
Gtr II (E A D G B E) - 'Electric Guitar (clean)'
Gtr III (E A D G B E) - 'Clavinet'
Gtr IV (E A D G B E) - 'Electric Guitar (clean)'
Gtr V (E A D G B E) - 'Electric Guitar (distorted)'


 Intro
  Q=126
  D7sus4  Amadd4/D
 4/4
  Gtr I
  |--3--|           |--3--|
  Q   Q Q H         Q   Q Q  H
|----------------|-----/8-----------------|
|---/10----------|------------------------|
|----------------|------------------------|
|----------------|------------------------|
|----------------|------------------------|
|----------------|------------------------|
|
| Gtrs III, IV
| H       Q.   E   +H       +E  S S S S E
|---------5----5-|-(5)------(5)-----------|
|-8-------6----6-|-(6)------(6)-6-----6---|
|-5-------5----5-|-(5)------(5)-5-----5---|
|-7-------7----7-|-(7)------(7)-7-----7---|
|----------------|------------------------|
|----------------|------------------------|


  Bb
                        Gtr II
  |--3---|
  Q    Q Q H            H               E   S  S  E   E
|---------------------|---------------------x-20s15--------|
|----/10--------------|---------------------x-20s15--------|
|---------------------|------------------------------------|
|---------------------|------------------------------------|
|---------------------|------------------------------------|
|---------------------|------------------------------------|
|
| H.          S S S S   S S S S S S S S S S S  S  S S S S
|---------------------|------------------------------------|
|-6-----------6-x-x-x-|-x-6-x-x-6---x-x-x-6-x--x--6---x----|
|-7-----------7-x-x-x-|-x-7-x-x-7---x-x-x-7-x--x--7---x----|
|-8-----------8-x-x-x-|-x-8-x-x-8---x-x-x-8-x--x--8---x----|
|---------------------|------------------------------------|
|---------------------|------------------------------------|


    D7sus4  Amadd4/D
    |--3--|            |--3--|
    Q   Q Q H          Q   Q Q  H
||------------------|-----/8-----------------|
||o---/10-----------|------------------------|
||------------------|------------------------|
||------------------|------------------------|
||o-----------------|------------------------|
||------------------|------------------------|
|
|   Gtr II
|   W                  W
||------------------|------------------------|
||o-----------------|------------------------|
||------------------|------------------------|
||------------------|------------------------|
||o-----------------|------------------------|
||------------------|------------------------|
|
|   Gtrs III, IV
|   H       Q.   E    +H       +E  S S S S E
||----------5----5--|-(5)------(5)-----------|
||o-8-------6----6--|-(6)------(6)-6-----6---|
||--5-------5----5--|-(5)------(5)-5-----5---|
||--7-------7----7--|-(7)------(7)-7-----7---|
||o-----------------|------------------------|
||------------------|------------------------|


  Bb
  |--3---|
  Q    Q Q H            W                                     3x
|---------------------|---------------------------------------||
|----/10--------------|--------------------------------------o||
|---------------------|---------------------------------------||
|---------------------|---------------------------------------||
|---------------------|--------------------------------------o||
|---------------------|---------------------------------------||
|
| W                     H               E    S  S  E    E     3x
|---------------------|---------------------20-20-20\---------||
|---------------------|---------------------20-20-20\--------o||
|---------------------|---------------------17-17-17\---------||
|---------------------|---------------------------------------||
|---------------------|--------------------------------------o||
|---------------------|---------------------------------------||
|
| H.          S S S S   S S S S S S S S S S  S  S  S  S S S   3x
|---------------------|---------------------------------------||
|-6-----------6-x-x-x-|-x-6-x-x-6---x-x-x-6--x--x--6----x----o||
|-7-----------7-x-x-x-|-x-7-x-x-7---x-x-x-7--x--x--7----x-----||
|-8-----------8-x-x-x-|-x-8-x-x-8---x-x-x-8--x--x--8----x-----||
|---------------------|--------------------------------------o||
|---------------------|---------------------------------------||


  D7sus2
  Gtr III
  E S S S S S S S S S S +E  E
|-----------------------------|
|---1-----1-----1-----1-(1)-3-|
|---2-----2-----2-----2-(2)---|
|-0-----0-----0-----0---------|
|-----------------------------|
|-----------------------------|


                                Bb/C
  E S S S S S S S S S S +E  E   W          +W
|-----------------------------|-1--------|-(1)----|
|---1-----1-----1-----1-(1)-3-|-3--------|-(3)----|
|---2-----2-----2-----2-(2)---|-3--------|-(3)----|
|-0-----0-----0-----0---------|----------|--------|
|-----------------------------|-3--------|-(3)----|
|-----------------------------|----------|--------|


  D7sus2                                                    Bb/C
  E S S S S S S S S S S +Q     E S S S S S S S S S S +Q     W
|---0-----0-----0-----0-(0)--|---0-----0-----0-----0-(0)--|-1----|
|---1-----1-----1-----1-(1)--|---1-----1-----1-----1-(1)--|-3----|
|---2-----2-----2-----2-(2)--|---2-----2-----2-----2-(2)--|-3----|
|-0-----0-----0-----0--------|-0-----0-----0-----0--------|------|
|----------------------------|----------------------------|-3----|
|----------------------------|----------------------------|------|


                    D7sus4        Amadd4/D
  Gtr I
   H     Q  E E     E S S S S S S S  S S S S S E
|---------------||-------------------------------|
|---------------||o------------------------------|
|-------------2s||==5-5-5-x-5-x-x-5--x-x-5-x-x-7-|
|---------------||-------------------------------|
|---------------||o------------------------------|
|---------------||-------------------------------|
|
| Gtr III       Gtrs II, III
| +W                H             Q.           E
|-(1)-----------||-----------------------------5-|
|-(3)-----------||o-8-------------6------------6-|
|-(3)-----------||--5-------------5------------5-|
|---------------||--7-------------7------------7-|
|-(3)-----------||o------------------------------|
|---------------||-------------------------------|


   S  S S S S S S S  S  S S S S S E
|-----------------------------------|
|-----------------------------------|
|--x--x-5-5-x-5-x-x--5--x-x-5-x-x-7-|
|-----------------------------------|
|-----------------------------------|
|-----------------------------------|
|
| +H                +E    S S S S E
|-(5)---------------(5)-------------|
|-(6)---------------(6)---6-----6---|
|-(5)---------------(5)---5-----5---|
|-(7)---------------(7)---7-----7---|
|-----------------------------------|
|-----------------------------------|


                                                       $
  Bb
  E  S  S  e E H       E   S  S  e E  Q      E   E
|---13-13-13--------|-----13-13-13------------------||-|
|---15-15-15--------|-----15-15-15-----------------o||-|
|---15-15-15--------|-----15-15-15---------------2s=||=|
|-------------------|-------------------------------||-|
|-------------------|------------------------------o||-|
|-------------------|-------------------------------||-|
|
| W                   +H             +E  S S S S E
|-------------------|-------------------------------||-|
|-6-----------------|-(6)------------(6)-6-----6---o||-|
|-7-----------------|-(7)------------(7)-7-----7----||-|
|-8-----------------|-(8)------------(8)-8-----8----||-|
|-------------------|------------------------------o||-|
|-------------------|-------------------------------||-|


 1st & 2nd Verses
  D7sus4        Amadd4/D
  E S S S S S S S  S S S S S E    S  S S S S S S S  S  S S S S S E
|------------------------------|------------------------------------|
|------------------------------|------------------------------------|
|-5-5-5-x-5-x-x-5--x-x-5-x-x-7-|--x--x-5-5-x-5-x-x--5--x-x-5-x-x-7--|
|------------------------------|------------------------------------|
|------------------------------|------------------------------------|
|------------------------------|------------------------------------|
|
| H             Q.           E   +H                +E    S S S S E
|----------------------------5-|-(5)---------------(5)--------------|
|-8-------------6------------6-|-(6)---------------(6)---6-----6----|
|-5-------------5------------5-|-(5)---------------(5)---5-----5----|
|-7-------------7------------7-|-(7)---------------(7)---7-----7----|
|------------------------------|------------------------------------|
|------------------------------|------------------------------------|


  Bb
  E  S  S  e E H       E   S  S  e E  Q      E   E
|---13-13-13--------|-----13-13-13-----------------|
|---15-15-15--------|-----15-15-15-----------------|
|---15-15-15--------|-----15-15-15---------------2s|
|-------------------|------------------------------|
|-------------------|------------------------------|
|-------------------|------------------------------|
|
| W                   +H             +E  S S S S E
|-------------------|------------------------------|
|-6-----------------|-(6)------------(6)-6-----6---|
|-7-----------------|-(7)------------(7)-7-----7---|
|-8-----------------|-(8)------------(8)-8-----8---|
|-------------------|------------------------------|
|-------------------|------------------------------|


  D7sus4        Amadd4/D
  E S S S S S S S  S S S S S E    S  S S S S S S S  S  S S S S S E
|------------------------------|-------------------------------------|
|------------------------------|-------------------------------------|
|-5-5-5-x-5-x-x-5--x-x-5-x-x-7-|--x--x-5-5-x-5-x-x--5--x-x-5-x-x-7---|
|------------------------------|-------------------------------------|
|------------------------------|-------------------------------------|
|------------------------------|-------------------------------------|
|
| H             Q.           E   +H                +E    S S S S E
|----------------------------5-|-(5)---------------(5)---------------|
|-8-------------6------------6-|-(6)---------------(6)---6-----6-----|
|-5-------------5------------5-|-(5)---------------(5)---5-----5-----|
|-7-------------7------------7-|-(7)---------------(7)---7-----7-----|
|------------------------------|-------------------------------------|
|------------------------------|-------------------------------------|


  Bb
  E  S  S  e E H       E   S  S  e E  Q      E   E
|---13-13-13--------|-----13-13-13-----------------|
|---15-15-15--------|-----15-15-15-----------------|
|---15-15-15--------|-----15-15-15---------------2s|
|-------------------|------------------------------|
|-------------------|------------------------------|
|-------------------|------------------------------|
|
| W                   +H             +E  S S S S E
|-------------------|------------------------------|
|-6-----------------|-(6)------------(6)-6-----6---|
|-7-----------------|-(7)------------(7)-7-----7---|
|-8-----------------|-(8)------------(8)-8-----8---|
|-------------------|------------------------------|
|-------------------|------------------------------|


  D7sus4        Amadd4/D
  E S S S S S S S  S S S S S E    S  S S S S S S S  S  S S S S S E
|------------------------------|-------------------------------------|
|------------------------------|-------------------------------------|
|-5-5-5-x-5-x-x-5--x-x-5-x-x-7-|--x--x-5-5-x-5-x-x--5--x-x-5-x-x-7---|
|------------------------------|-------------------------------------|
|------------------------------|-------------------------------------|
|------------------------------|-------------------------------------|
|
| H             Q.           E   +H                +E    S S S S E
|----------------------------5-|-(5)---------------(5)---------------|
|-8-------------6------------6-|-(6)---------------(6)---6-----6-----|
|-5-------------5------------5-|-(5)---------------(5)---5-----5-----|
|-7-------------7------------7-|-(7)---------------(7)---7-----7-----|
|------------------------------|-------------------------------------|
|------------------------------|-------------------------------------|


  Bb
  E  S  S  e E H       E   S  S  e E  Q      E   E
|---13-13-13--------|-----13-13-13-----------------|
|---15-15-15--------|-----15-15-15-----------------|
|---15-15-15--------|-----15-15-15---------------2s|
|-------------------|------------------------------|
|-------------------|------------------------------|
|-------------------|------------------------------|
|
| W                   +H             +E  S S S S E
|-------------------|------------------------------|
|-6-----------------|-(6)------------(6)-6-----6---|
|-7-----------------|-(7)------------(7)-7-----7---|
|-8-----------------|-(8)------------(8)-8-----8---|
|-------------------|------------------------------|
|-------------------|------------------------------|


  D7sus4        Amadd4/D
  E S S S S S S S  S S S S S E    S  S S S S S S S  S  S S S S S E
|------------------------------|-------------------------------------|
|------------------------------|-------------------------------------|
|-5-5-5-x-5-x-x-5--x-x-5-x-x-7-|--x--x-5-5-x-5-x-x--5--x-x-5-x-x-7---|
|------------------------------|-------------------------------------|
|------------------------------|-------------------------------------|
|------------------------------|-------------------------------------|
|
| H             Q.           E   +H                +E    S S S S E
|----------------------------5-|-(5)---------------(5)---------------|
|-8-------------6------------6-|-(6)---------------(6)---6-----6-----|
|-5-------------5------------5-|-(5)---------------(5)---5-----5-----|
|-7-------------7------------7-|-(7)---------------(7)---7-----7-----|
|------------------------------|-------------------------------------|
|------------------------------|-------------------------------------|


  E  S  S  e E H       E   S  S  e E  H
|---13-13-13--------|-----13-13-13-----------------||
|---15-15-15--------|-----15-15-15-----------------||
|---15-15-15--------|-----15-15-15-----------------||
|-------------------|------------------------------||
|-------------------|------------------------------||
|-------------------|------------------------------||
|
| W                   +H             +E  S S S S E
|-------------------|------------------------------||
|-6-----------------|-(6)------------(6)-6-----6---||
|-7-----------------|-(7)------------(7)-7-----7---||
|-8-----------------|-(8)------------(8)-8-----8---||
|-------------------|------------------------------||
|-------------------|------------------------------||


 Chorus
  Am7  Amadd4/DBbmaj7    Em7b5
  W                 W
|----------------|----------------|
|----------------|----------------|
|----------------|----------------|
|----------------|----------------|
|----------------|----------------|
|----------------|----------------|
|
| Q.   E +Q.   E   +Q.   E +H
|-5----5-(5)---5-|-(5)---3-(3)----|
|-5----6-(6)---3-|-(3)---3-(3)----|
|-5----5-(5)---3-|-(3)---3-(3)----|
|-5----7-(7)---3-|-(3)---2-(2)----|
|----------------|----------------|
|----------------|----------------|


  Am7  Amadd4/DBbmaj7    Em7b5        D7sus4        Amadd4/D
  W                 W                 E S S S S S S S  S S S S S E
|----------------|------------------|------------------------------|
|----------------|------------------|------------------------------|
|----------------|------------------|---5-5-x-5-x-x-5--x-x-5-x-x-7-|
|----------------|------------------|------------------------------|
|----------------|------------------|------------------------------|
|----------------|------------------|------------------------------|
|
| Q.   E +Q.   E   +Q.   E +Q   e E   H             Q.           E
|-5----5-(5)---5-|-(5)---3-(3)--3---|----------------------------5-|
|-5----6-(6)---3-|-(3)---3-(3)--3---|-8-------------6------------6-|
|-5----5-(5)---3-|-(3)---3-(3)--3---|-5-------------5------------5-|
|-5----7-(7)---3-|-(3)---2-(2)--2---|-7-------------7------------7-|
|----------------|------------------|------------------------------|
|----------------|------------------|------------------------------|


   S  S S S S S S S  S  S S S S S E
|-------------------------------------|
|-------------------------------------|
|--x--x-5-5-x-5-x-x--5--x-x-5-x-x-7---|
|-------------------------------------|
|-------------------------------------|
|-------------------------------------|
|
| +H                +E    S S S S E
|-(5)---------------(5)---------------|
|-(6)---------------(6)---6-----6-----|
|-(5)---------------(5)---5-----5-----|
|-(7)---------------(7)---7-----7-----|
|-------------------------------------|
|-------------------------------------|


  Bb
  E  S  S  e E H       E   S  S  e E  Q      E   E
|---13-13-13--------|-----13-13-13-----------------|
|---15-15-15--------|-----15-15-15-----------------|
|---15-15-15--------|-----15-15-15---------------2s|
|-------------------|------------------------------|
|-------------------|------------------------------|
|-------------------|------------------------------|
|
| W                   +H             +E  S S S S E
|-------------------|------------------------------|
|-6-----------------|-(6)------------(6)-6-----6---|
|-7-----------------|-(7)------------(7)-7-----7---|
|-8-----------------|-(8)------------(8)-8-----8---|
|-------------------|------------------------------|
|-------------------|------------------------------|


  D7sus4        Amadd4/D
  E S S S S S S S  S S S S S E    S  S S S S S S S  S  S S S S S E
|------------------------------|-------------------------------------|
|------------------------------|-------------------------------------|
|-5-5-5-x-5-x-x-5--x-x-5-x-x-7-|--x--x-5-5-x-5-x-x--5--x-x-5-x-x-7---|
|------------------------------|-------------------------------------|
|------------------------------|-------------------------------------|
|------------------------------|-------------------------------------|
|
| H             Q.           E   +H                +E    S S S S E
|----------------------------5-|-(5)---------------(5)---------------|
|-8-------------6------------6-|-(6)---------------(6)---6-----6-----|
|-5-------------5------------5-|-(5)---------------(5)---5-----5-----|
|-7-------------7------------7-|-(7)---------------(7)---7-----7-----|
|------------------------------|-------------------------------------|
|------------------------------|-------------------------------------|


                                  To Coda
  Bb
                                                    Gt
  e  S  S  e e h       e   S  S  e e  h
|---13-13-13--------|-----13-13-13------------------||
|---15-15-15--------|-----15-15-15------------------||
|---15-15-15--------|-----15-15-15------------------||
|-------------------|-------------------------------||
|-------------------|-------------------------------||
|-------------------|-------------------------------||
|
|                                                   Gt
| W                    W
|-------------------|-------------------------------||
|-------------------|-------------------------------||
|-------------------|-------------------------------||
|-------------------|-------------------------------||
|-------------------|-------------------------------||
|-------------------|-------------------------------||
|
| Gtr III
| W                   +H             +E   S S S S E
|-------------------|-------------------------------||
|-6-----------------|-(6)------------(6)--6-----6---||
|-7-----------------|-(7)------------(7)--7-----7---||
|-8-----------------|-(8)------------(8)--8-----8---||
|-------------------|-------------------------------||
|-------------------|-------------------------------||


 Interlude
  D7sus4              Amadd4/D
 r V
   E  Q.               +Q         +E     +E     S   S  S  S  S  S  S  S  S   S  S  S  E    E
|--------------------------------------------|-10h=13-----------------------------------------|
|----13b15============(13)-------(13)r==(13)-|--------15-13----13-----------------------------|
|--------------------------------------------|--------------14----14-13-12--10-------10-------|
|--------------------------------------------|---------------------------------12-10------12--|
|--------------------------------------------|------------------------------------------------|
|--------------------------------------------|------------------------------------------------|
|
|r I
|  E  S     S S S S S   S  S S S   S  S   E     S   S  S  S  S  S  S  S  S   S  S  S  S S  E
|--------------------------------------------|------------------------------------------------|
|--------------------------------------------|------------------------------------------------|
|-/5--5-----5-x-5-x-x---5--x-x-5---x--x---7--|--x---x--5--5--x--5--x--x--5---x--x--5--x-x--7--|
|--------------------------------------------|------------------------------------------------|
|--------------------------------------------|------------------------------------------------|
|--------------------------------------------|------------------------------------------------|
|
|  H                    Q.                E    +H                       +E      S  S  S S  E
|-----------------------------------------5--|-(5)----------------------(5)-------------------|
|--8--------------------6-----------------6--|-(6)----------------------(6)-----6-------6-----|
|--5--------------------5-----------------5--|-(5)----------------------(5)-----5-------5-----|
|--7--------------------7-----------------7--|-(7)----------------------(7)-----7-------7-----|
|--------------------------------------------|------------------------------------------------|
|--------------------------------------------|------------------------------------------------|


  Bb
                                |--3--|
   E  Q.             +Q    +E   S  S  S    S   S  E     S  S  E      +Q       +Q
|---------------------------------------|--------------13h15-15b16==(15)r====(15)-----|
|------------------------------10-13-14s|=15--13h15-----------------------------------|
|-10-12b14==========(12)r=(12)----------|---------------------------------------------|
|---------------------------------------|---------------------------------------------|
|---------------------------------------|---------------------------------------------|
|---------------------------------------|---------------------------------------------|
|
|  E  S      S  e E   H                    E      S  S  e     E       Q        E    E
|----13-----13-13-----------------------|--------13-13-13-----------------------------|
|----15-----15-15-----------------------|--------15-15-15-----------------------------|
|----15-----15-15-----------------------|--------15-15-15---------------------------2s|
|---------------------------------------|---------------------------------------------|
|---------------------------------------|---------------------------------------------|
|---------------------------------------|---------------------------------------------|
|
|  W                                      +H                         +E  S S   S  S E
|---------------------------------------|---------------------------------------------|
|--6------------------------------------|-(6)------------------------(6)-6--------6---|
|--7------------------------------------|-(7)------------------------(7)-7--------7---|
|--8------------------------------------|-(8)------------------------(8)-8--------8---|
|---------------------------------------|---------------------------------------------|
|---------------------------------------|---------------------------------------------|


  D7sus4                  Amadd4/D
   S  S  S  S  S  S  S  S  S   S  S  S  S  S  S  S
|-------13-------13-------13--------13-------13-------|
|-13h15----13h15----13h15-----13h15----13h15----13h===|
|-----------------------------------------------------|
|-----------------------------------------------------|
|-----------------------------------------------------|
|-----------------------------------------------------|
|
|  E     S  S  S  S  S  S  S   S  S  S  S  S  E
|-----------------------------------------------------|
|-----------------------------------------------------|
|--5-----5--5--x--5--x--x--5---x--x--5--x--x--7-------|
|-----------------------------------------------------|
|-----------------------------------------------------|
|-----------------------------------------------------|
|
|  H                       Q.                 E
|---------------------------------------------5-------|
|--8-----------------------6------------------6-------|
|--5-----------------------5------------------5-------|
|--7-----------------------7------------------7-------|
|-----------------------------------------------------|
|-----------------------------------------------------|


   S   S  S  S  S  S  S  S  S   S  S  S  S  S  E
|-----13-------13-------13--------13-------13----|
|-15-----13h15----13h15----13h=15----13h15----15-|
|------------------------------------------------|
|------------------------------------------------|
|------------------------------------------------|
|------------------------------------------------|
|
|  S   S  S  S  S  S  S  S  S   S  S  S  S  S  E
|------------------------------------------------|
|------------------------------------------------|
|--x---x--5--5--x--5--x--x--5---x--x--5--x--x--7-|
|------------------------------------------------|
|------------------------------------------------|
|------------------------------------------------|
|
| +H                       +E      S  S  S  S  E
|-(5)----------------------(5)-------------------|
|-(6)----------------------(6)-----6--------6----|
|-(5)----------------------(5)-----5--------5----|
|-(7)----------------------(7)-----7--------7----|
|------------------------------------------------|
|------------------------------------------------|


                                                                                  D.S. al Coda
     Bb
   E  E        +S   S  E  E  S      +S   +E   S      +S     +E   E     E  E  E     +E     E   E
|-13-15b16r===(15)p13------------------------------------|----------------------------------------||
|---------------------15s12-10b12==(10)r(10)-------------|----------------------------------------||
|--------------------------------------------12b13==(12)r|=(12)-10-------10-12b14r(12)\-----------||
|--------------------------------------------------------|------------12--------------------------||
|--------------------------------------------------------|----------------------------------------||
|--------------------------------------------------------|------------------------------------5/--||
|
|  E  S     S   e      E  H                                  E   S  S  e  E  Q            E   E
|----13----13--13----------------------------------------|------13-13-13--------------------------||
|----15----15--15----------------------------------------|------15-15-15--------------------------||
|----15----15--15----------------------------------------|------15-15-15----------------------2s==||
|--------------------------------------------------------|----------------------------------------||
|--------------------------------------------------------|----------------------------------------||
|--------------------------------------------------------|----------------------------------------||
|
|  W                                                        +H              +E      S   S S S E
|--------------------------------------------------------|----------------------------------------||
|--6-----------------------------------------------------|--(6)-------------(6)-----6-------6-----||
|--7-----------------------------------------------------|--(7)-------------(7)-----7-------7-----||
|--8-----------------------------------------------------|--(8)-------------(8)-----8-------8-----||
|--------------------------------------------------------|----------------------------------------||
|--------------------------------------------------------|----------------------------------------||


 Interlude
  &
  N.C.           Bb              N.C.
             Gtr I
  Wx7          E  S  S  e E Q  E E
|------------|---13-13-13-----------|
|------------|---15-15-15-----------|
|------------|---15-15-15--------2s=|
|------------|----------------------|
|------------|----------------------|
|------------|----------------------|


  E S S S S S S S S S S S S E   S S S S S S S S S S S S S S E
|-----------------------------|-------------------------------|
|-----------------------------|-------------------------------|
|-5-5-5-x-5-x-x-5-x-x-5-x-x-7-|-x-x-5-5-x-5-x-x-5-x-x-5-x-x-7-|
|-----------------------------|-------------------------------|
|-----------------------------|-------------------------------|
|-----------------------------|-------------------------------|


    Bb                                  N.C.
  E  S  S  e E H      E  S  S  e E Q  E E
|---13-13-13--------|---13-13-13-----------|
|---15-15-15--------|---15-15-15-----------|
|---15-15-15--------|---15-15-15--------2s=|
|-------------------|----------------------|
|-------------------|----------------------|
|-------------------|----------------------|


  E S S S S S S S S S S S S E   S S S S S S S S S S S S S S E
|-----------------------------|-------------------------------|
|-----------------------------|-------------------------------|
|-5-5-5-x-5-x-x-5-x-x-5-x-x-7-|-x-x-5-5-x-5-x-x-5-x-x-5-x-x-7-|
|-----------------------------|-------------------------------|
|-----------------------------|-------------------------------|
|-----------------------------|-------------------------------|


    Bb
  E  S  S  e E H      E  S  S  e E H
|---13-13-13--------|---13-13-13--------|
|---15-15-15--------|---15-15-15--------|
|---15-15-15--------|---15-15-15--------|
|-------------------|-------------------|
|-------------------|-------------------|
|-------------------|-------------------|


  D7sus2
  Gtr III
  E S S S S S S S S S S +S  S S S
|---------------------------------|
|---1-----1-----1-----3-(3)-------|
|---2-----2-----2-----2-(2)-----2-|
|-0-----0-----0-----0-------0h3---|
|---------------------------------|
|---------------------------------|


                                    Gm7
  E S S S S S S S S S S +S  S S S   E S S S S S S S S S S +S  S S S
|---0-----------0-----------0-----|---------------------------------|
|---1-----------1-----------1-----|---3-----3-----3-----3-(3)---3-3-|
|---2---2-------2-----------2-----|---3-----3-----3-----3-(3)---3-3-|
|-0-------3---------0h3-(3)---0h3-|---3-----3-----3-----3-(3)---3-3-|
|-------------0-------------------|---------------------------------|
|---------------------------------|-3-----3-----3-----3-------3-----|


                              D7sus2
  E E S S S S S S S S S S E   E E S S S S S S S S S S E
|---------------------------|-----0-----0-----0-----0---|
|-----3-----3-----3-----3-3-|-----1-----1-----1-----1---|
|-----3-----3-----3-----3-3-|-----2-----2-----2-----2---|
|-----3-----3-----3-----3-3-|---0-----0-----0---0-0-----|
|-3-5-----5-----5---5-5-----|-3-----------------------2-|
|---------------------------|---------------------------|


                              Bb/Db
  E E S S S S S S S S S S E   E E S S S S S S S S S S E
|-----0-----0-----0-----0---|-----1-----1-----1-----1---|
|-----1-----1-----1-----1---|-----3-----3-----3-----3---|
|-----2-----2-----2-----2---|-----3-----3-----3-----3---|
|---0-----0-----0---0-0-----|---0-----0-----0---0-0-----|
|-3-----------------------2-|-3-----------------------2-|
|---------------------------|---------------------------|


                                         Guitar Solo
                                          D7sus4         Amadd4/D
  Gtr V
                                           ~~~~~~~~~~~~~~~~~~~~~~~~~~~~~~~~~
  H           E    E        +E     +E      H              +Q.            E
|-----------------13b14====(13)r==(13)-||-10-------------(10)-----------10-|
|--------------------------------------||----------------------------------|
|--------------------------------------||----------------------------------|
|--------------------------------------||----------------------------------|
|--------------------------------------||----------------------------------|
|--------------------------------------||----------------------------------|
|
| Gtr III                              Gtr I
| E E S S S S S S  S     S   S  S   E      E S S S S S S   S  S S S S S  E
|-----1-----1------1------------1------||----------------------------------|
|-----3-----3------3------------3------||----------------------------------|
|-----3-----3------3------------3------||-/5-5-5-x-5-x-x---5--x-x-5-x-x--7-|
|---0-----0-----0--------0---0------0--||----------------------------------|
|-3------------------------------------||----------------------------------|
|--------------------------------------||----------------------------------|
|
|                                      Gtrs II, III
| W                                        H               Q.            E
|--------------------------------------||--------------------------------5-|
|--------------------------------------||--8---------------6-------------6-|
|--------------------------------------||--5---------------5-------------5-|
|--------------------------------------||--7---------------7-------------7-|
|--------------------------------------||----------------------------------|
|--------------------------------------||----------------------------------|


 ~~~~~~                                              ~~
   +Q         +E     S  S      +S   S  E     E.      S
|-(10)-------(10)\---------------------------------------|
|--------------------------------------------------------|
|----------------------12b13==(12)-12-12r---12------10---|
|--------------------------------------------------------|
|--------------------------------------------------------|
|--------------------------------------------------------|
|
|   S  S S S   S   S S  S       S   S  S  S  S  S E
|--------------------------------------------------------|
|--------------------------------------------------------|
|---x--x-5-5---x---5-x--x-------5---x--x--5--x--x-7------|
|--------------------------------------------------------|
|--------------------------------------------------------|
|--------------------------------------------------------|
|
|  +H                          +E      S  S  S  S E
|--(5)-------------------------(5)-----------------------|
|--(6)-------------------------(6)-----6--------6--------|
|--(5)-------------------------(5)-----5--------5--------|
|--(7)-------------------------(7)-----7--------7--------|
|--------------------------------------------------------|
|--------------------------------------------------------|


  Bb
    ~~~~~~~~~~~~~~~~~~~
   +H              +Q.    E     H              E   S  S  S  S  E
|----------------------------|-----------------------------------|
|----------------------------|--------------------13h15-13h15p13-|
|-(10)------------(10)---10\-|-----------------------------------|
|----------------------------|-----------------------------------|
|----------------------------|-----------------------------------|
|----------------------------|-----------------------------------|
|
|   E   S  S  e E   H           E   S  S  e E  Q         E     E
|------13-13-13--------------|-----13-13-13----------------------|
|------15-15-15--------------|-----15-15-15----------------------|
|------15-15-15--------------|-----15-15-15--------------------2s|
|----------------------------|-----------------------------------|
|----------------------------|-----------------------------------|
|----------------------------|-----------------------------------|
|
|   W                          +H             +E   S  S  S  S  E
|----------------------------|-----------------------------------|
|---6------------------------|-(6)------------(6)--6--------6----|
|---7------------------------|-(7)------------(7)--7--------7----|
|---8------------------------|-(8)------------(8)--8--------8----|
|----------------------------|-----------------------------------|
|----------------------------|-----------------------------------|


  D7sus4            Amadd4/D
                                       |-------3--------|      |------------3------------|
   W                                  +Q       q        q      q       q        E       +E
|----------------------------------|----------------------------------------------------------|
|-15b16r===========================|=(15)-----15-------15-----15------15-------15b16r==(15)---|
|----------------------------------|----------------------------------------------------------|
|----------------------------------|----------------------------------------------------------|
|----------------------------------|----------------------------------------------------------|
|----------------------------------|----------------------------------------------------------|
|
|  E    S S S S S S S  S S S S S E     S  S S    S S S    S S  S  S S    S S S       E
|----------------------------------|----------------------------------------------------------|
|----------------------------------|----------------------------------------------------------|
|--5----5-5-x-5-x-x-5--x-x-5-x-x-7-|---x--x-5----5-x-5----x-x--5--x-x----5-x-x-------7--------|
|----------------------------------|----------------------------------------------------------|
|----------------------------------|----------------------------------------------------------|
|----------------------------------|----------------------------------------------------------|
|
|  H                Q.           E    +H                      +E    S    S S S       E
|--------------------------------5-|--(5)---------------------(5)-----------------------------|
|--8----------------6------------6-|--(6)---------------------(6)---6--------6----------------|
|--5----------------5------------5-|--(5)---------------------(5)---5--------5----------------|
|--7----------------7------------7-|--(7)---------------------(7)---7--------7----------------|
|----------------------------------|----------------------------------------------------------|
|----------------------------------|----------------------------------------------------------|


  Bb
      ~~~~~~~~~~~~~~~~~~~~~~~~~~~~
   S  E.        +H.           +E   a  E      Q   a  E  E    S  S  E
|-13-----------------------|----------------------------------------|
|----15--------(15)--------|-(15)-15s18\---------3s15\-----11p10----|
|--------------------------|-------------------------------------10-|
|--------------------------|----------------------------------------|
|--------------------------|----------------------------------------|
|--------------------------|----------------------------------------|
|
|  E      S  S   e  E H        E      S   S  e E    Q       E     E
|--------13-13--13---------|---------13--13-13----------------------|
|--------15-15--15---------|---------15--15-15----------------------|
|--------15-15--15---------|---------15--15-15--------------------2s|
|--------------------------|----------------------------------------|
|--------------------------|----------------------------------------|
|--------------------------|----------------------------------------|
|
|  W                          +H                   +E  S S  S  S  E
|--------------------------|----------------------------------------|
|--6-----------------------|--(6)------------------(6)-6-------6----|
|--7-----------------------|--(7)------------------(7)-7-------7----|
|--8-----------------------|--(8)------------------(8)-8-------8----|
|--------------------------|----------------------------------------|
|--------------------------|----------------------------------------|


  D7sus4               Amadd4/D
  E  a  E    S  E    S  S  S  E        +E     +E       E     a  E    +S   E.      E     E        +Q
|---------------------------------------------------|------------------------------------------------------|
|----------------------------13b15====(13)---(13)r\-|----------------------------------13b15====(13)-------|
|---10h12---10h12p==10-12p10------------------------|-------10h12---(12)-12------12------------------------|
|---------------------------------------------------|------------------------------------------------------|
|---------------------------------------------------|------------------------------------------------------|
|---------------------------------------------------|------------------------------------------------------|
|
| E     S S  S  S S  S  S  S  S     S   S  S   E       S  S     S S   S   S  S S  S  S  S     S   S  S E
|---------------------------------------------------|------------------------------------------------------|
|---------------------------------------------------|------------------------------------------------------|
|-5-----5-5--x--5-x--x--5--x--x-----5---x--x---7----|--x--x-----5-5---x---5--x-x--5--x--x-----5---x--x-7---|
|---------------------------------------------------|------------------------------------------------------|
|---------------------------------------------------|------------------------------------------------------|
|---------------------------------------------------|------------------------------------------------------|
|
| H                     Q.                     E      +H                         +E     S     S   S  S E
|----------------------------------------------5----|-(5)------------------------(5)-----------------------|
|-8---------------------6----------------------6----|-(6)------------------------(6)----6------------6-----|
|-5---------------------5----------------------5----|-(5)------------------------(5)----5------------5-----|
|-7---------------------7----------------------7----|-(7)------------------------(7)----7------------7-----|
|---------------------------------------------------|------------------------------------------------------|
|---------------------------------------------------|------------------------------------------------------|


  Bb
                                 ~~~~~~~~~~~~~~~~~~~
   +Q         +H        +Q      +Q             +Q     +H
|----------------------------|--------------------------------------|
|-(13)-------(13)r=====(13)--|-(13)b15========(13)r==(13)-----------|
|----------------------------|--------------------------------------|
|----------------------------|--------------------------------------|
|----------------------------|--------------------------------------|
|----------------------------|--------------------------------------|
|
|   E   S  S   e  E H            E       S  S   e  E   Q      E   E
|------13-13--13-------------|----------13-13--13-------------------|
|------15-15--15-------------|----------15-15--15-------------------|
|------15-15--15-------------|----------15-15--15-----------------2s|
|----------------------------|--------------------------------------|
|----------------------------|--------------------------------------|
|----------------------------|--------------------------------------|
|
|   W                           +H                    +E  S S S S E
|----------------------------|--------------------------------------|
|---6------------------------|--(6)-------------------(6)-6-----6---|
|---7------------------------|--(7)-------------------(7)-7-----7---|
|---8------------------------|--(8)-------------------(8)-8-----8---|
|----------------------------|--------------------------------------|
|----------------------------|--------------------------------------|


  D7sus4                 Amadd4/D
  E  a  E    +S   E.      H                 +H                 S   S  E    S      +E.
|----------------------------------------|-----------------------------------------------|
|----------------------------------------|-----------------------------------------------|
|---13s12---(12)-10----------------------|---------------------------10---12pb13r(12)----|
|------------------------12--------------|-(12)---------------10h=12-10------------------|
|----------------------------------------|-----------------------------------------------|
|----------------------------------------|-----------------------------------------------|
|
| E     S S   S   S  S S  S  S S S S S E     S  S S S S S S S  S   S  S S  S       S  E
|----------------------------------------|-----------------------------------------------|
|----------------------------------------|-----------------------------------------------|
|-5-----5-5---x---5--x-x--5--x-x-5-x-x-7-|---x--x-5-5-x-5-x-x--5---x--x-5--x-------x--7--|
|----------------------------------------|-----------------------------------------------|
|----------------------------------------|-----------------------------------------------|
|----------------------------------------|-----------------------------------------------|
|
| H                       Q.           E    +H                +E      S S  S       S  E
|--------------------------------------5-|--(5)---------------(5)------------------------|
|-8-----------------------6------------6-|--(6)---------------(6)-----6------------6-----|
|-5-----------------------5------------5-|--(5)---------------(5)-----5------------5-----|
|-7-----------------------7------------7-|--(7)---------------(7)-----7------------7-----|
|----------------------------------------|-----------------------------------------------|
|----------------------------------------|-----------------------------------------------|


  Bb
                                                                G
   Q.           E  +Q    a  E  E    e   E     Q    H
|--------------------------------|------------------------------|
|--------------------------------|------------------------------|
|-10-----------------------------|------------------------------|
|--------------12-(12)--11s10-12-|------------------------------|
|--------------------------------|--8---------------------------|
|--------------------------------|------------------------------|
|
|  E   S  S  e  E   H               E   S  S  e E  H
|-----13-13-13-------------------|-----13-13-13-----------------|
|-----15-15-15-------------------|-----15-15-15-----------------|
|-----15-15-15-------------------|-----15-15-15-----------------|
|--------------------------------|------------------------------|
|--------------------------------|------------------------------|
|--------------------------------|------------------------------|
|
|  W                               +H             +E  S S S S E
|--------------------------------|------------------------------|
|--6-----------------------------|-(6)------------(6)-6-----6---|
|--7-----------------------------|-(7)------------(7)-7-----7---|
|--8-----------------------------|-(8)------------(8)-8-----8---|
|--------------------------------|------------------------------|
|--------------------------------|------------------------------|


   Bridge
    Am7  Amadd4/DBbmaj7    Em7b5
 trs II, III
    Q.   E +Q.   E   +Q.   E +H
||--5----5-(5)---5-|-(5)---3-(3)----|
||o-5----6-(6)---3-|-(3)---3-(3)----|
||--5----5-(5)---3-|-(3)---3-(3)----|
||--5----7-(7)---3-|-(3)---2-(2)----|
||o----------------|----------------|
||-----------------|----------------|
|
|   W                 W
||-----------------|----------------|
||o----------------|----------------|
||-----------------|----------------|
||-----------------|----------------|
||o----------------|----------------|
||-----------------|----------------|
|
|   W                 W
||-----------------|----------------|
||o----------------|----------------|
||-----------------|----------------|
||-----------------|----------------|
||o----------------|----------------|
||-----------------|----------------|


  Am7  Amadd4/DBbmaj7    Em7b5        Am7  Amadd4/DBbmaj7    Em7b5
  Q.   E +Q.   E   +Q.   E +Q   E E   Q.   E +Q.   E   +Q.   E +H
|-5----5-(5)---5-|-(5)---3-(3)--3---|-5----5-(5)---5-|-(5)---3-(3)----|
|-5----6-(6)---3-|-(3)---3-(3)--3---|-5----6-(6)---3-|-(3)---3-(3)----|
|-5----5-(5)---3-|-(3)---3-(3)--3---|-5----5-(5)---3-|-(3)---3-(3)----|
|-5----7-(7)---3-|-(3)---2-(2)--2---|-5----7-(7)---3-|-(3)---2-(2)----|
|----------------|------------------|----------------|----------------|
|----------------|------------------|----------------|----------------|


  Am7  Amadd4/DBbmaj7    Em7b5
  Q.   E +Q.   E   +Q.   E +Q   E E
|-5----5-(5)---5-|-(5)---3-(3)--3----||
|-5----6-(6)---3-|-(3)---3-(3)--3---o||
|-5----5-(5)---3-|-(3)---3-(3)--3----||
|-5----7-(7)---3-|-(3)---2-(2)--2----||
|----------------|------------------o||
|----------------|-------------------||
|
| W                 W
|----------------|-------------------||
|----------------|------------------o||
|----------------|-------------------||
|----------------|-------------------||
|----------------|------------------o||
|----------------|-------------------||


 Outro
  D7sus4        Amadd4/D
  Gtr I
  E S S S S S S S  S S S S S E    S  S S S S S S S  S  S S S S S E
|------------------------------|-------------------------------------|
|------------------------------|-------------------------------------|
|---5-5-x-5-x-x-5--x-x-5-x-x-7-|--x--x-5-5-x-5-x-x--5--x-x-5-x-x-7---|
|------------------------------|-------------------------------------|
|------------------------------|-------------------------------------|
|------------------------------|-------------------------------------|
|
| Gtrs II, III
| H             Q.           E   +H                +E    S S S S E
|----------------------------5-|-(5)---------------(5)---------------|
|-8-------------6------------6-|-(6)---------------(6)---6-----6-----|
|-5-------------5------------5-|-(5)---------------(5)---5-----5-----|
|-7-------------7------------7-|-(7)---------------(7)---7-----7-----|
|------------------------------|-------------------------------------|
|------------------------------|-------------------------------------|


  Bb
  E  S  S  e E H       E   S  S  e E  Q      E   E
|---13-13-13--------|-----13-13-13-----------------|
|---15-15-15--------|-----15-15-15-----------------|
|---15-15-15--------|-----15-15-15---------------2s|
|-------------------|------------------------------|
|-------------------|------------------------------|
|-------------------|------------------------------|
|
| W                   +H             +E  S S S S E
|-------------------|------------------------------|
|-6-----------------|-(6)------------(6)-6-----6---|
|-7-----------------|-(7)------------(7)-7-----7---|
|-8-----------------|-(8)------------(8)-8-----8---|
|-------------------|------------------------------|
|-------------------|------------------------------|


    D7sus4        Amadd4/D
    E S S S S S S S  S S S S S E
||-------------------------------|
||o------------------------------|
||--5-5-5-x-5-x-x-5--x-x-5-x-x-7-|
||-------------------------------|
||o------------------------------|
||-------------------------------|
|
|   H             Q.           E
||-----------------------------5-|
||o-8-------------6------------6-|
||--5-------------5------------5-|
||--7-------------7------------7-|
||o------------------------------|
||-------------------------------|


   S  S S S S S S S  S  S S S S S E
|-----------------------------------|
|-----------------------------------|
|--x--x-5-5-x-5-x-x--5--x-x-5-x-x-7-|
|-----------------------------------|
|-----------------------------------|
|-----------------------------------|
|
| +H                +E    S S S S E
|-(5)---------------(5)-------------|
|-(6)---------------(6)---6-----6---|
|-(5)---------------(5)---5-----5---|
|-(7)---------------(7)---7-----7---|
|-----------------------------------|
|-----------------------------------|


  Bb
  E  S  S  e E H       E   S  S  e E  Q      E   E    4x
|---13-13-13--------|-----13-13-13--------------------||
|---15-15-15--------|-----15-15-15-------------------o||
|---15-15-15--------|-----15-15-15---------------2----||
|-------------------|---------------------------------||
|-------------------|--------------------------------o||
|-------------------|---------------------------------||
|
| W                   +H             +E  S S S S E    4x
|-------------------|---------------------------------||
|-6-----------------|-(6)------------(6)-6-----6-----o||
|-7-----------------|-(7)------------(7)-7-----7------||
|-8-----------------|-(8)------------(8)-8-----8------||
|-------------------|--------------------------------o||
|-------------------|---------------------------------||
            
Submit corrections

↑ Back to top | Tablatures and chords for acoustic guitar and electric guitar, ukulele, drums are parodies/interpretations of the original songs. You may use it for private study, scholarship, research or language learning purposes only