» » »

Ataris - Let It Burn Tabs

Artists:  A B C D E F G H I J K L M N O P Q R S T U V W X Y Z # 

Let It Burn Tabs

(ver. 1) Click to play this song!
Ataris
 Rating:
4/5 (4 votes)

 Let It Burn lessons Tabs too difficult? Try these video lessons and learn fast
 
                		     Let It Burn - The Ataris


6x
6x - Mute after picking
4x

~ - let ring

Intro Part 1:  Both Guitars
e|--------------------------------------------------------|
B|--------------------------------------------------------|
G|-12~--13x---12~--13~--15x-------------------------------|
D|--x----xx----x----x----xx-------------------------------|
A|-10~--11x---10~--11~--13x-------------------------------|
E|--------------------------------------------------------|

Intro Part 2:  Guitar 1  
e|----------------------------------------------------------------|
B|----------------------------------------------------------------|
G|-------------------------6-6-6-6-6-6-6-6-6-6-6-6----------------|
D|-3-3-3-3-3-3-3-3-3-3-3-3-6-6-6-6-6-6-6-6-6-6-6-6-6-6-6-6-6-6-6-6|
A|-3-3-3-3-3-3-3-3-3-3-3-3-4-4-4-4-4-4-4-4-4-4-4-4-6-6-6-6-6-6-6-6|
E|-1-1-1-1-1-1-1-1-1-1-1-1-------------------------4-4-4-4-4-4-4-4|

Intro Part 2 Cont'd:  Guitar 1
e|---------------------|
B|---------------------|
G|---------------------|
D|6-6--6-6x--5-5-5-6-5-|
A|6-6--6-6x--5-5-5-6-5-|
E|4-4--4-4x--3-3-3-4-3-|

Intro Part 2:  Guitar 2
e|--------------------------------------------P-------------------|
B|--------------------------------------------A-------------------|
G|-12-12-12-13-13-13-13-13-13-13--8--6--5--3--U--3--3--3--5--3----|
D|--x--x--x--x--x--x--x--x--x--x--x--x--x--x--S--x--x--x--x--x----|
A|-10-10-10-11-11-11-10-11-11-11--6--4--3--1--E--1--1--1--3--1----|
E|----------------------------------------------------------------|

Intro Part 3:  Guitar 1
e|----------------------------------------------------------------|
B|----------------------------------------------------------------|
G|-------------------------6-6-6-6-6-6-6-6-6-6-6-6----------------|
D|-3-3-3-3-3-3-3-3-3-3-3-3-6-6-6-6-6-6-6-6-6-6-6-6-6-6-6-6-6-6-6-6|
A|-3-3-3-3-3-3-3-3-3-3-3-3-4-4-4-4-4-4-4-4-4-4-4-4-6-6-6-6-6-6-6-6|
E|-1-1-1-1-1-1-1-1-1-1-1-1-------------------------4-4-4-4-4-4-4-4|

Intro Part 3 Cont'd:  Guitar 1
e|----------------------|
B|----------------------|
G|----------------------|
D|6-6-6-6-5-5-5-5-5-5-6x|
A|6-6-6-6-5-5-5-5-5-5-6x|
E|4-4-4-4-3-3-3-3-3-3-4x|

Intro Part 3:  Guitar 2
e|----------------------------------------------------------------|
B|----------------------------------------------------------------|
G|-12-12-12-15-13-13-13-13-13-13--8--6--5--3--3-3-3--5x-----------|
D|--x--x--x--x--x--x--x--x--x--x--x--x--x--x--x-x-x--xx-----------|
A|-10-10-10-13-11-11-10-11-11-11--6--4--3--1--1-1-1--3x-----------|
E|----------------------------------------------------------------|

Verse:  Guitar 1
e|----------------------------------------------------------------|
B|----------------------------------------------------------------|
G|----------------------------6-6-6-6-6-6-6-6-6-6-----------------|
D|3-3-3-3-3-3-3---------------6-6-6-6-6-6-6-6-6-6---6-6-6-6-6-6-6-|
A|3-3-3-3-3-3-3---------------4-4-4-4-3-3-4-4-4-4---6-6-6-6-6-6-6-|
E|1-1-1-1-1-1-1-------------------------------------4-4-4-4-4-4-4-|

Verse Cont'd:  Guitar 1
e|----------------------------------|
B|----------------------------------|
G|----------------------------------|
D|------5-5-5-5-5-5-6-6-6-5-5-5-----|
A|------5-5-5-5-5-5-6-6-6-5-5-5-----|
E|------3-3-3-3-3-3-4-4-4-3-3-3-----|

Verse Cont'd:  Guitar 1
e|----------------------------------------------------------------|
B|----------------------------------------------------------------|
G|----------------------------6-6-6-6-6-6-6-6-6-6-----------------|
D|3-3-3-3-3-3-3---------------6-6-6-6-6-6-6-6-6-6---6-6-6-6-6-6-6-|
A|3-3-3-3-3-3-3---------------4-4-4-4-3-3-4-4-4-4---6-6-6-6-6-6-6-|
E|1-1-1-1-1-1-1-------------------------------------4-4-4-4-4-4-4-|

Verse Cont'd:  Guitar 1
e|----------------------------------|
B|----------------------------------|
G|----------------------------------|
D|------5-5-5-5-5-5-6-6-6-5-5-5-----|
A|------5-5-5-5-5-5-6-6-6-5-5-5-----|
E|------3-3-3-3-3-3-4-4-4-3-3-3-----|

Verse:  Guitar 2
e|--------------------------------------------------------------------|
B|--------------------------------------------------------------------|
G|----------------------------6-6-6-6-6-6-8-6-5-3-5-5-5-5-5-5-6-8-8-8-|
D|3-3-3-3-3-3-----------------x-x-x-x-x-x-x-x-x-x-x-x-x-x-x-x-x-x-x-x-|
A|3-3-3-3-3-3-----------------4-4-4-4-4-4-6-4-3-1-3-3-3-3-3-3-4-6-6-6-|
E|1-1-1-1-1-1---------------------------------------------------------|


Verse Cont'd:  Guitar 2
e|---------------------------------------------------------------------|
B|---------------------------------------------------------------------|
G|5-5-5-5-5-5---5-5-5-5-5-5-6-6-6-6-6-6-8-6-5-3-5-5-5-5-5-5-6-8-5-5-5-5|
D|x-x-x-x-x-x---x-x-x-x-x-x-x-x-x-x-x-x-x-x-x-x-x-x-x-x-x-x-x-x-x-x-x-x|
A|3-3-3-3-3-3---3-3-3-3-3-3-4-4-4-4-4-4-6-4-3-1-3-3-3-3-3-3-4-6-3-3-3-3|
E|---------------------------------------------------------------------|

Chorus:  Guitar 1
e|--------------------------------------------------------------------|
B|--------------------------------------------------------------------|
G|6-6-6-6-6-6-8-8-8-8-8-8-10-10-10-10-10-10-5-5-5-8-8-8-6-6-6-6-6-6---|
D|6-6-6-6-6-6-8-8-8-8-8-8-10-10-10-10-10-10-5-5-5-8-8-8-6-6-6-6-6-6---|
A|4-4-4-4-4-4-6-6-6-6-6-6--8--8--8--8--8--8-3-3-3-6-6-6-4-4-4-4-4-4---|
E|--------------------------------------------------------------------|

Chorus Cont'd:  Guitar 1
e|------------------------------------------------------S-------------|
B|------------------------------------------------------C-------------|
G|8-8-8-8-8-8-------------5-5-5-8-8-8-6-6-6-6-6-6-8-8-8-R-------8-8-8-|
D|8-8-8-8-8-8-3-3-3-3-3-3-5-5-5-8-8-8-6-6-6-6-6-6-8-8-8-A-6-6-6-8-8-8-|
A|6-6-6-6-6-6-3-3-3-3-3-3-3-3-3-6-6-6-4-4-4-4-4-4-6-6-6-P-6-6-6-6-6-6-|
E|------------1-1-1-1-1-1-------------------------------E-4-4-4-------|

Chorus Cont'd:  Guitar 1
e|--------------------------------------------------------------------|
B|--------------------------------------------------------------------|
G|------8-8-8-6-6-6-6-6-6-6-6-6-6-6-6-8-8-8-8-8-8-9-9-9-9-9-9---------|
D|3-3-3-8-8-8-6-6-6-6-6-6-6-6-6-6-6-6-8-8-8-8-8-8-9-9-9-9-9-9---------|
A|3-3-3-6-6-6-4-4-4-4-4-4-4-4-4-4-4-4-6-6-6-6-6-6-7-7-7-7-7-7---------|
E|1-1-1---------------------------------------------------------------|

Chorus:  Guitar 2
e|--------------------------------------------------------------------|
B|--------------------------------------------------------------------|
G|10-10-10-10-10-10-12-12-12-12-12-12-13-13-13-13-13-13-12-12-12-8-8-8|
D|-x--x--x--x--x--x--x--x--x--x--x--x--x--x--x--x--x--x--x--x--x-x-x-x|
A|-8--8--8--8--8--8-10-10-10-10-10-10-11-11-11-11-11-11-10-10-10-6-6-6|
E|--------------------------------------------------------------------|

Chorus Cont'd:  Guitar 2
e|--------------------------------------------------------------------|
B|--------------------------------------------------------------------|
G|10-10-10-10-10-10-12-12-12-12-12-12-13-13-13-13-13-13-12-12-12-15-15|
D|-x--x--x--x--x--x--x--x--x--x--x--x--x--x--x--x--x--x--x--x--x--x--x|
A|-8--8--8--8--8--8-10-10-10-10-10-10-11-11-11-11-11-11-10-10-10-13-13|
E|--------------------------------------------------------------------|

Chorus Cont'd:  Guitar 2
e|------------------------------S-------------------------------------|
B|------------------------------C-------------------------------------|
G|15-10-10-10-10-10-10-12-12-12-R-----8-8-----8-8-6-6-6-6-6-6-6-6-6-6-|
D|-x--x--x--x--x--x--x--x--x--x-A-6-6-8-8-3-3-8-8-6-6-6-6-6-6-6-6-6-6-|
A|13--8--8--8--8--8--8-10-10-10-P-6-6-6-6-3-3-6-6-4-4-4-4-4-4-4-4-4-4-|
E|------------------------------E-4-4-----1-1-------------------------|

Chorus Cont'd:  Guitar 2
e|--------------------------------------------------------------------|
B|--------------------------------------------------------------------|
G|6-6-8-8-8-8-8-8-9-9-9-9-9-9-----------------------------------------|
D|6-6-8-8-8-8-8-8-9-9-9-9-9-9-----------------------------------------|
A|4-4-6-6-6-6-6-6-7-7-7-7-7-7-----------------------------------------|
E|--------------------------------------------------------------------|

Repeat Intro: (Part 2 + Part 3)

Repeat Verse:
I won't let you
Play me for a fool
Set me free to go to church
But I cant pray in school
Make your decision for yourself
Don't bother with any trends
Open up your book
And share your knowledge with your friends

Repeat Chorus

Outro:  Both Guitars  4x
e|---------------------------------------------------------------------|
B|---------------------------------------------------------------------|
G|-----------6-6-6-----------------------------6-6-6-------------------|
D|3-3-3-3-3x-6-6-6-6-6-6-6-6x-5-6-5-3-3-3-3-3x-6-6-6-6-6-6-6-6x-6-5-6-5|
A|3-3-3-3-3x-4-4-4-6-6-6-6-6x-5-6-5-3-3-3-3-3x-4-4-4-6-6-6-6-6x-6-5-6-5|
E|1-1-1-1-1x-------4-4-4-4-4x-3-4-3-1-1-1-1-1x-------4-4-4-4-4x-4-3-4-3|

End on:  Both Guitars
e|------------|
B|------------|
G|------------|
D|-3-3-3-3-3x-|
A|-3-3-3-3-3x-|
E|-1-1-1-1-1x-|

Finally the complete tab of this song.  The strumming isn't completely
correct through out the tab but it's pretty close.  Thanks to everyone
who helped out on it.  This tab only found on The Complete Ataris 
Guitar Tablature Archive.
            
Submit corrections


        Let It Burn lessons Hard to play? Try these video lessons and learn fast Let It Burn lessons
        
↑ Back to top | Tablatures and chords for acoustic guitar and electric guitar, ukulele, drums are parodies/interpretations of the original songs. You may use it for private study, scholarship, research or language learning purposes only