Home » A » Ataque 77 »

Ataque 77 - El Cielo Puede Esperar Tabs

Artists:  A B C D E F G H I J K L M N O P Q R S T U V W X Y Z # 

El Cielo Puede Esperar Tabs

(ver. 1) Click to play this song!
Ataque 77
KEY

Chords
	note: all the chords, are power chords

E: D-2-      F: D-3-     G: D-5-      A: D-7-
   A-2-         A-3-	    A-5-	 A-7-
   E-0-         E-1-	    E-3-	 E-5-

C: G-5-      D: G-7-	 E7: G-9-
   D-5-         D-7-	     D-9-
   A-3-		A-5-	     A-7-
   E---		E---	     E---



Intro X2
e-----------------------------
B-----------------------------
G-----------------7777--9999--
D-77--55--33--22--7777--9999--
A-77--55--33--22--5555--7777--
E-55--33--11--00--------------


Verse1
A                       G
Demasiado alcoholizado
F                    E
demasiado abandonado
D                                   E7     G
demasiado descarriado para esta nación.
A                      G
Yo no voy a ningún lado
F                    E
la muerte me esta esperando
D                                   E7     G
tengo un lugar reservado en el cementerio.


Chorus
F      G
El cielo...
                    C  A  G  F G
el cielo puede esperar
     C     F        G
el cielo puede esperar
    F            G  C  A  G  F G
el cielo puede esperar
C      F              G
en la calle quiero estar, oh no.


Intro X2
e-----------------------------
B-----------------------------
G-----------------7777--9999--
D-77--55--33--22--7777--9999--
A-77--55--33--22--5555--7777--
E-55--33--11--00--------------


Verse2
A                       G
Demasiado alcoholizado
F                    E
demasiado abandonado
D                                   E7     G
demasiado descarriado para esta nación.
A                      G
El Estado me persigue
F                    E
la muerte me esta esperando
D                                   E7     G
tengo un lugar reservado en el cementerio.


Chorus
F      G
El cielo...
                    C  A  G  F G
el cielo puede esperar
     C     F        G
el cielo puede esperar
    F            G  C  A  G  F G
el cielo puede esperar
C      F              G
en la calle quiero estar, oh no.


Intro X2
e-----------------------------
B-----------------------------
G-----------------7777--9999--
D-77--55--33--22--7777--9999--
A-77--55--33--22--5555--7777--
E-55--33--11--00--------------


Bridge
D                G          C         A
 Por las noches tengo que robar para comer
D           G             C         E7
 este mundo no me ofrece nada que perder.


Verse 3
A                       G
Todos me quieren ver muerto
F                    E
todos me quieren ver muerto
D                                   E7     G
todos me quieren ver muerto por la policía.
A                       G
Se que me están esperando
F                    E
quizás estén a mi lado
D                                   E7     G
todos quieren que termine en el cementerio.


Chorus
F      G
El cielo...
                    C  A  G  F G
el cielo puede esperar
     C     F        G
el cielo puede esperar
    F            G  C  A  G  F G
el cielo puede esperar
C      F              G
el infierno es mi lugar, oh no!.


Outro X4
e-----------------------------
B-----------------------------
G-----------------7777--9999--
D-77--55--33--22--7777--9999--
A-77--55--33--22--5555--7777--
E-55--33--11--00--------------


THANKS
            
Submit corrections

↑ Back to top | Tablatures and chords for acoustic guitar and electric guitar, ukulele, drums are parodies/interpretations of the original songs. You may use it for private study, scholarship, research or language learning purposes only