» » »

Aswad - Love Fire Bass

Artists:  A B C D E F G H I J K L M N O P Q R S T U V W X Y Z # 

Love Fire Bass

(ver. 1) Click to play this song!
Aswad
 Rating:
2.7/5 (27 votes)

 Love Fire  lessons Tabs too difficult? Try these video lessons and learn fast
 
                Main Riff  
G|----------------|----------------|----------------|----------------|
D|--------.---3-5-|.---.---.---.---|--------.---3-5-|.---.---.-------|
A|5-------5-5-----|0---0---3---3---|5-------5-5-----|0---0---3-------|
E|----------------|----------------|----------------|----------3-1---|

'Chorus'
G|--------.-------|.---.---2-2-2---|--------.-------|.---.---2-------|
D|--------3-3-3-3-|5---5---.-------|--------3-3-3-3-|5---5---.-3-3---|
A|R---5-----------|----------------|R---5-----------|----------------|
E|----------------|----------------|----------------|----------------|
On the final repeat of the 'Chorus', the last two bars 
are replaced with this:
G|----------------|----------------|
D|--------.---3-5-|.---.-----------|
A|R-------5-5-----|0---0---3-------|
E|----------------|----------------|
            
Submit corrections


        Love Fire  lessons Hard to play? Try these video lessons and learn fast Love Fire  lessons
        
↑ Back to top | Tablatures and chords for acoustic guitar and electric guitar, ukulele, drums are parodies/interpretations of the original songs. You may use it for private study, scholarship, research or language learning purposes only