» » »

Astrid Smeplass - Jolene Tabs

Artists:  A B C D E F G H I J K L M N O P Q R S T U V W X Y Z # 

Jolene Tabs

(ver. 1) Click to play this song!
Astrid Smeplass
 Rating:
3.6/5 (25 votes)

 Jolene  lessons Tabs too difficult? Try these video lessons and learn fast
 
                  Intro + verse-->

 ||--3-----3-----3-----2-----2-----2-----3-----3-----3-----|
 ||-----0-----------0-----0-----------0-----0-----------0--|
 ||--------------------------------------------------------|
 ||--2--------2--------2--------2--------2--------2--------| 
 ||--------------------------------------------------------|
 ||--------------------------------------------------------|
                        
                          
 |--2-----2-----2h3-----5-----5-----5-----3-----3----3-----|
 |-----0-------------0-----0-----------0-----0----------0--|
 |---------------------------------------------------------|
 |--0--------0---------------------------------------------| 
 |----------------------3--------3--------3--------3-------|
 |---------------------------------------------------------|

 |--5-----5-----5-----3-----3----3----||
 |-----0-----------0-----0----------0-||
 |------------------------------------||
 |------------------------------------|| x 4
 |--3--------3--------3--------3------||
 |------------------------------------||

  1st chorus-->

 |--0-----------0-----------------3-----3-----3p2-----2----|
 |--------3--------3--3-----3--------3-----3-------------3-|
 |-----0-----------------0---------------------------------|
 |--------------------------------------0----------0-------| 
 |--3--------3---------------------------------------------|
 |--------------------3--------3---------------------------|

 |--3-----3-----3-----2-----2-----2------------------------|
 |-----0-----------0-----0-----------0--3-----3-----3------|
 |-----------------------------------------0-----------0---|
 |--2--------2--------2--------2---------------------------| 
 |--------------------------------------3--------3---------|
 |---------------------------------------------------------|


 |--3-----3p2-----2-----3-----3-----3-----2-----2----2-----|
 |-----3-------------3-----0-----------0-----0----------0--|
 |---------------------------------------------------------|
 |--0----------0--------2--------2--------2--------2-------| 
 |---------------------------------------------------------|
 |---------------------------------------------------------|

 |--3-----------3-----------------3-----3-----3p2-----2----|
 |--------3--------3--3-----3--------3-----3-------------3-|
 |-----0-----------------0---------------------------------|
 |--------------------------------------0----------0-------| 
 |--3--------3---------------------------------------------|
 |--------------------3--------3---------------------------|

 |--3-----3-----3-----2-----2-----0-----------------3------|
 |-----0-----------0-----0-----------0--3-----3--------3---|
 |-----------------------------------------0---------------|
 |--2--------2--------2--------2---------------------------| 
 |--------------------------------------3--------3---------|
 |---------------------------------------------------------|

 |--3-----3p2-----2-----|
 |-----3-------------3--|
 |----------------------|
 |--0----------0--------|
 |----------------------|
 |----------------------|

  2nd verse:
  * = The bass note from the "C"-chord to the "E"-chord
  third last note is the difference from the first verse.
  

 |--3-----3-----3-----2-----2-----2-----3-----3-----3-----|
 |-----0-----------0-----0-----------0-----0-----------0--|
 |--------------------------------------------------------|
 |--2--------2--------2--------2--------2--------2--------| 
 |--------------------------------------------------------|
 |--------------------------------------------------------|

 |--2-----2-----2h3-----5-----5-----5-----3-----3----3-----|
 |-----0-------------0-----0-----------0-----0----------0--|
 |---------------------------------------------------------|
 |--0--------0---------------------------------------------| 
 |----------------------3--------3--------3--------3-------|
 |---------------------------------------------------------|

 |--5-----5-----5-----3-----3----3----||
 |-----0-----------0-----0----------0-||
 |------------------------------------||
 |------------------------------------|| x 3
 |--3--------3--------3--------0------||
 |------------------------------------||
                               *

  Second chorus-->

  (Some small differences from the first chorus)


 |--0-----------0-----------------3-----3-----3p2-----2----|
 |--------3--------3--3-----3--------3-----3-------------3-|
 |-----0-----------------0---------------------------------|
 |--------------------------------------0----------0-------| 
 |--3--------3---------------------------------------------|
 |--------------------3--------3---------------------------|

 |--3-----3-----3-----2-----2-----0-----------------3------|
 |-----0-----------0-----0-----------0--3-----3------------|
 |-----------------------------------------0-----------0---|
 |--2--------2--------2--------2---------------------------| 
 |--------------------------------------3--------3---------|
 |---------------------------------------------------------|


 |--3-----2-------2-----3-----3-----3-----2-----2----0-----|
 |-----3-------------3-----0-----------0-----0----------0--|
 |---------------------------------------------------------|
 |--0----------0--------2--------2--------2--------2-------| 
 |---------------------------------------------------------|
 |---------------------------------------------------------|

 |--------------3-----------------3-----3-----3p2-----2----|
 |--3-----3--------3--3-----3--------3-----3-------------3-|
 |-----0-----------------0---------------------------------|
 |--------------------------------------0----------0-------| 
 |--3--------3---------------------------------------------|
 |--------------------3--------3---------------------------|

 |--3-----3-----3-----2-----2-----0-----------------3------|
 |-----0-----------0-----0-----------0--3-----3--------3---|
 |-----------------------------------------0---------------|
 |--2--------2--------2--------2---------------------------| 
 |--------------------------------------3--------3---------|
 |---------------------------------------------------------|

 |--3-----3p2-----2-----|
 |-----3-------------3--|
 |----------------------|
 |--0----------0--------|
 |----------------------|
 |----------------------|


  Outro:

  "Please don't take him...."

 |--3-----3-----3-----2----2-----2----------2--|
 |-----0-----------0----0-----------0--3----3--|
 |-------------------------------------0-------|
 |--2--------2--------0-------0-------------0--| 
 |-------------------------------------3-------|
 |---------------------------------------------|
 
 |--------3--|
 |------0----|
 |-----------|
 |----2------| 
 |-----------|
 |--0--------|
 
            
Submit corrections


        Jolene  lessons Hard to play? Try these video lessons and learn fast Jolene  lessons
        
↑ Back to top | Tablatures and chords for acoustic guitar and electric guitar, ukulele, drums are parodies/interpretations of the original songs. You may use it for private study, scholarship, research or language learning purposes only