» » »

A Static Lullaby - We Go To Eleven Bass

Artists:  A B C D E F G H I J K L M N O P Q R S T U V W X Y Z # 

We Go To Eleven Bass

(ver. 1) Click to play this song!
A Static Lullaby
 Rating:
4/5 (4 votes)


 We Go To Eleven lessons Tabs too difficult? Try these video lessons and learn fast
 
                A Static Lullaby
"We Go To Eleven"
...And Don't Forget To Breathe (Track 6)
Drop-D Tuning (DADG)

This synth part isn't played on the bass, but it sounds better when you play it.

It goes like this:                             (sixteens and fourteens)
G-------------------------------------------16~~14~---------14-16-16-14----14
D--------------------------------------------------16~14-16-------------16---

Intro:                                     (Let ring for about 1 sec.)
G-------------|---------------------------------------------------------------------
D-9~~~~~9~~~~~|9~~~~~9~~~~~------------------9~-----9~------------------------------
A-------------|---------------------------------------------------------------------
D-------------|------------00000000000000000--------------00000000000000000000000000

Verse: {0:31}
         Play 3 Times      Play Last (4th) Time
G-----|-------------------|---------------
D-----|-------------------|---------------
A-----|2-0022-5-5---------|-2-00-22-555/12
D-12\3|-----------44445555|---------------

Chorus: {0:42} (x4)
G---------------
D---------------
A---------------
D-55555555555544

{0:53} Intro w/ var.
G-------------------------------------------------------------------------------
D-9~~~~~9~~~~~------------------9~-----9~---------------------------------------
A-------------------------------------------------------------------------------
D-------------00000000000000000--------------0000000000000000/121212121212121212 (Twelves)

{1:13} Verse

{1:24} Chorus Extended
G---------------|        G-----------------
D---------------|        D----------------- 
A---------------|x4 then A---8--8--8--8---- x4
D-55555555555544|        D-88-88-88-88-7777

{1:46} (x4)
G---------
D---------
A---------
D-7-7-7-8~

{2:06}
G-------------------------------------------------------------------------------------------
D-------------------------------------------------------------------------------------------
A-------------------------------------------------------------------------------------------
D-14\88>>77778>>77778>>77778>>77775>>5>>5>>5>>77778>>77778>>77778>>77778>>77775>>5>>5>>5>>5~

{3:05} Ending (x8)
G--------------
D--------------
A--------------
D-5555555544444

{3:27}
G-----
D-----
A-----
D-445~


Please rate it if you like it. Email me with any questions.
            
Submit corrections



        We Go To Eleven lessons Hard to play? Try these video lessons and learn fast We Go To Eleven lessons
        
↑ Back to top | Tablatures and chords for acoustic guitar and electric guitar, ukulele, drums are parodies/interpretations of the original songs. You may use it for private study, scholarship, research or language learning purposes only