Home » A » Asphyx »

Asphyx - Wardroid Tabs

Artists:  A B C D E F G H I J K L M N O P Q R S T U V W X Y Z # 

Wardroid Tabs

(ver. 1) Click to play this song!
Asphyx
[Intro]
D|---------------------------------------------------------------------------|
A|---------------------------------------------------------------------------|
F|---------------------------------------------------------------------------|
C|-2---let-------------------------------------------------------------------|
G|-2---ring--------------14-/-9--11-11-9--11--11-9--12--12-11--14--14-14-----|
D|-0---out---------------12-/-7---9--9-7---9---9-7--10--10--9--12--12-12-----|(1x)

D|---------------------------------------------------------------------------|
A|---------------------------------------------------------------------------|
F|---------------------------------------------------------------------------|
C|---------------------------------------------------------------------------|
G|-9--11-11-9--11--11-9--12--12-11--14--14-14--------------------------------|
D|-7---9--9-7---9---9-7--10--10--9--12--12-12--------------------------------|(3x)

[Verse]
D|-----------------------------------------------------------------------------------------------------------|
A|-----------------------------------------------------------------------------------------------------------|
F|-----------------------------------------------------------------------------------------------------------|
C|-2------------------------------------------------2------------------------------2-------------------------|
G|-2-----------------------------------------5-5-6--2-----------------------5-5-6--2----------------5-5-6----|
D|-0-----------------------------------------3-3-4--0-----------------------3-3-4--0----------------3-3-4----|
  
D|---------------------------------------------------------------------------|
A|---------------------------------------------------------------------------|
F|---------------------------------------------------------------------------|
C|-2-------------------------------------------------------------------------|
G|-2-----------------12------------------------------------------------------|
D|-0-----------------------9b/-----------------------------------------------|

[Chorus]
D|--------------------------------------------------------------------------------------------------------|
A|--------------------------------------------------------------------------------------------------------|
F|--------------------------------------------------------------------------------------------------------|
C|--------------------------------------------------------------------------------------------------------|
G|--9--11-11-9--11--11-9--12--12-11--14--14-14--------9--11-11-9--11--11-9--12--12-11--14--14-12----------|
D|--7---9--9-7---9---9-7--10--10--9--12--12-12--------7---9--9-7---9---9-7--10--10--9--12--12-12----------|
                 
D|-----------------------------------------------------------------------------------------------------------|
A|-----------------------------------------------------------------------------------------------------------|
F|-----------------------------------------------------------------------------------------------------------|
C|-----------------------------------------------------------------------------------------------------------|
G|--9--11-11-9--11--11-9--12--12-11--14--14-12----------------9--11-11-9--11--11-9--12--12-11--14--14-12-----|
D|--7---9--9-7---9---9-7--10--10--9--12--12-12----------------7---9--9-7---9---9-7--10--10--9--12--12-12-----|
                                  
[Verse]
D|-----------------------------------------------------------------------------------------------------------|
A|-----------------------------------------------------------------------------------------------------------|
F|-----------------------------------------------------------------------------------------------------------|
C|-2--------------------------------2------------------------------------------2-----------------------------|
G|-2-------------------------5-5-6--2-----------------------------------5-5-6--2-----------------------------|
D|-0-------------------------3-3-4--0-----------------------------------3-3-4--0-----------------------------|
     
D|------------------------------------------------------------------------------------------|
A|------------------------------------------------------------------------------------------|
F|------------------------------------------------------------------------------------------|
C|----------2-------------------------------------------------------------------------------|
G|-5-5-6----2-----------------------12------------------------------------------------------|
D|-3-3-4----0----------------------------9b/------------------------------------------------|
          
[Chorus]
D|--------------------------------------------------------------------------------------------------------|
A|--------------------------------------------------------------------------------------------------------|
F|--------------------------------------------------------------------------------------------------------|
C|--------------------------------------------------------------------------------------------------------|
G|--9--11-11-9--11--11-9--12--12-11--14--14-14--------9--11-11-9--11--11-9--12--12-11--14--14-12----------|
D|--7---9--9-7---9---9-7--10--10--9--12--12-12--------7---9--9-7---9---9-7--10--10--9--12--12-12----------|
                                                                
D|-----------------------------------------------------------------------------------------------------------|
A|-----------------------------------------------------------------------------------------------------------|
F|-----------------------------------------------------------------------------------------------------------|
C|-----------------------------------------------------------------------------------------------------------|
G|--9--11-11-9--11--11-9--12--12-11--14--14-12----------------9--11-11-9--11--11-9--12--12-11--14--14-12-----|
D|--7---9--9-7---9---9-7--10--10--9--12--12-12----------------7---9--9-7---9---9-7--10--10--9--12--12-12-----|
                                                                
[Break down/solo/verse thing]
D|--------------------------------------------------------------------------------|
A|--------------------------------------------------------------------------------|
F|--------------------------------------------------------------------------------|
C|-2-------------------------------------2---6--6---------------------------------|
G|-2--4b-4-------------------------------2---4--4--6-7-6--4-6-7--6-7-9-7-6-7-6----|
D|-0-------4-5-4b-2-4-5b-4-5-7-5-4-5-4---0---------4-5-4--2-4-5--4-5-7-5-4-5-4----|

D|-----------------------------------------------------------------------------------------------|
A|-----------------------------------------------------------------------------------------------|
F|-----------------------------------------------------------------------------------------------|
C|--(2-2-2-2-2-2-2)------(2-2-2-2-2-2-2)------(2-2-2-2-2-2-2)------(2-2-2-2-2-2-2)---------------|
G|--(2-2-2-2-2-2-2)-3----(2-2-2-2-2-2-2)-3----(2-2-2-2-2-2-2)-3----(2-2-2-2-2-2-2)-3-------------|
D|--(0-0-0-0-0-0-0)-1----(0-0-0-0-0-0-0)-1----(0-0-0-0-0-0-0)-1----(0-0-0-0-0-0-0)-1-------------|
    ( Palm mute )

D|---------------------------------------------------------------------------------|
A|---------------------------------------------------------------------------------|
F|---------------------------------------------------------------------------------|
C|-2--6--6--------------------------------2---6--6---------------------------------|
G|-2--4--4-6-7-6--4-6-7--6-7-9-7-6-7-6----2---4--4--6-7-6--4-6-7--6-7-9-7-6-7-6----|
D|-0-------4-5-4--2-4-5--4-5-7-5-4-5-4----0---------4-5-4--2-4-5--4-5-7-5-4-5-4----|

D|-----------------------------------------------------------------------------------------------|
A|-----------------------------------------------------------------------------------------------|
F|-----------------------------------------------------------------------------------------------|
C|--(2-2-2-2-2-2-2)------(2-2-2-2-2-2-2)------(2-2-2-2-2-2-2)------(2-2-2-2-2-2)-----------------|
G|--(2-2-2-2-2-2-2)-3----(2-2-2-2-2-2-2)-3----(2-2-2-2-2-2-2)-3----(2-2-2-2-2-2)-----------------|
D|--(0-0-0-0-0-0-0)-1----(0-0-0-0-0-0-0)-1----(0-0-0-0-0-0-0)-1----(0-0-0-0-0-0)-----------------|
    ( Palm mute )

[Verse]
D|------------------------------------------------------------------------------------------|
A|------------------------------------------------------------------------------------------|
F|------------------------------------------------------------------------------------------|
C|-2--------------------------------2------------------------2------------------------------|
G|-2-------------------------5-5-6--2-----------------5-5-6--2------------------------------|
D|-0-------------------------3-3-4--0-----------------3-3-4--0------------------------------|
    
D|------------------------------------------------------------------------------------------|
A|------------------------------------------------------------------------------------------|
F|------------------------------------------------------------------------------------------|
C|----------2-------------------------------------------------------------------------------|
G|-5-5-6----2-----------------------12------------------------------------------------------|
D|-3-3-4----0----------------------------9b/------------------------------------------------|
          
[Outro]
D|---------------------------------------------------------------------------|
A|---------------------------------------------------------------------------|
F|---------------------------------------------------------------------------|
C|---------------------------------------------------------------------------|
G|-9--11-11-9--11--11-9--12--12-11--14--14-14--------------------------------|
D|-7---9--9-7---9---9-7--10--10--9--12--12-12--------------------------------|(5x)

D|---------------------------------------------------------------------------|
A|---------------------------------------------------------------------------|
F|---------------------------------------------------------------------------|
C|---------------------------------------------------------------------------|
G|-(9--11-11-9--11--11-9--12--12-11--14--14-14)------------------------------|
D|-(7---9--9-7---9---9-7--10--10--9--12--12-12)------------------------------|(7x)
        (Palm Mute)            
Submit corrections

↑ Back to top | Tablatures and chords for acoustic guitar and electric guitar, ukulele, drums are parodies/interpretations of the original songs. You may use it for private study, scholarship, research or language learning purposes only