Home » A » Asking Alexandria »

Asking Alexandria - One Turns To None Tabs

Artists:  A B C D E F G H I J K L M N O P Q R S T U V W X Y Z # 

One Turns To None Tabs

(ver. 1) Click to play this song!
Asking Alexandria
 Rating:
4.3/5 (29 votes)
                [Intro] (0:00-0:15)
 
Eb|-------------|
Bb|-------------|
Gb|-------------|
Db|0-0----------|  (x2)
Ab|0-0----------|
Db|0-0-0--6--0--|
  PM PM
 
 
Eb|---------------------|           |---------------|
Bb|---------------------|           |---------------|
Gb|---------------------|           |---------------|
Db|---------------------| (x2)      |3-3-3-3-5-5-5-5|
Ab|---------------------|           |3-3-3-3-5-5-5-5|
Db|6--6-5--3-0--0-------|           |3-3-3-3-5-5-5-5|
 
 
[Verse 1] (0:28-0:41)
 
Eb|---------------------------------------------------------------------------|
Bb|-------9----------------9------------------9----------9--------9-----------|
Gb|7--10-----10-7----7--10----10-7-----7--10-----10-7-------10-7-----10-7-----|
Db|---------------------------------------------------------------------------|  (x2)
Ab|---------------------------------------------------------------------------|
Db|---------------------------------------------------------------------------|
 
 
[Pre-chorus] (0:41-0:44)
 
Eb|-----------------------------------------|
Bb|-----------------------------------------|
Gb|7-7-7----7-7-7----7-7-7----7-7-7---------|
Db|-----------------------------------------|
Ab|5-5-5----5-5-5----5-5-5----5-5-5---------|
Db|-----------------------------------------|
 
 
[Chorus] (0:45-1:11) x2
 
Eb|-------------|
Bb|-------------|
Gb|-------------|
Db|0-0----------|  (x2)
Ab|0-0----------|
Db|0-0-0--6--0--|
  PM PM
 
 
Eb|---------------------|           |---------------|
Bb|---------------------|           |---------------|
Gb|---------------------|           |---------------|
Db|---------------------| (x2)      |3-3-3-3-5-5-5-5|
Ab|---------------------|           |3-3-3-3-5-5-5-5|
Db|6--6-5--3-0--0-------|           |3-3-3-3-5-5-5-5|
 
 
[Verse 2] (1:28-1:40)
 
Eb|----------------|----------------|----------------|--------------------|
Bb|----------------|----------------|----------------|--------------------|
Gb|----------------|----------------|----------------|--------------------|
Db|----------------|----------------|----------------|--------------------|
Ab|----------------|----------------|----------------|--------------------|
Db|0-0-0-0-0-0-0-0-|7-7-7-7-7-7-7-7-|8-8-8-8-8-8-8-8-|7-7-7-7-11-11-11-11-|
 
 
[Pre-chorus] (1:41-1:44)
 
Eb|--------------------------------------------------|
Bb|--------------------------------------------------|
Gb|--------------------------------------------------|
Db|--------------------------------------------------|
Ab|-----------------0-0-0-0-0-0-0-0-0-0-0-0-0-0-0-0--|
Db|0--0--0--0-////--0-0-0-0-0-0-0-0-0-0-0-0-0-0-0-0--|
                 PM--------------------------------
 
[Chorus] (1:45-2:11)x2
 
Eb|-------------|
Bb|-------------|
Gb|-------------|
Db|0-0----------|  (x2)
Ab|0-0----------|
Db|0-0-0--6--0--|
  PM PM
 
 
Eb|---------------------|           |---------------|
Bb|---------------------|           |---------------|
Gb|---------------------|           |---------------|
Db|---------------------| (x2)      |3-3-3-3-5-5-5-5|
Ab|---------------------|           |3-3-3-3-5-5-5-5|
Db|6--6-5--3-0--0-------|           |3-3-3-3-5-5-5-5|
 
 
[Bridge/Solo] (2:17-2:30)
 
Eb|------------------------|----------------|----------------|--------------------|
Bb|------------------------|----------------|----------------|--------------------|
Gb|------------------------|----------------|----------------|--------------------|
Db|12-12-12-12-12-12-12-12-|7-7-7-7-7-7-7-7-|8-8-8-8-8-8-8-8-|7-7-7-7-11-11-11-11-|
Ab|12-12-12-12-12-12-12-12-|7-7-7-7-7-7-7-7-|8-8-8-8-8-8-8-8-|7-7-7-7-11-11-11-11-|
Db|12-12-12-12-12-12-12-12-|7-7-7-7-7-7-7-7-|8-8-8-8-8-8-8-8-|7-7-7-7-11-11-11-11-|
 
 
[Chorus] (2:31-2:54)
 
Eb|------------------------|----------------|----------------|--------------------|
Bb|------------------------|----------------|----------------|--------------------|
Gb|------------------------|----------------|----------------|--------------------|
Db|12-12-12-12-12-12-12-12-|7-7-7-7-7-7-7-7-|8-8-8-8-8-8-8-8-|7-7-7-7-11-11-11-11-|
Ab|12-12-12-12-12-12-12-12-|7-7-7-7-7-7-7-7-|8-8-8-8-8-8-8-8-|7-7-7-7-11-11-11-11-|
Db|12-12-12-12-12-12-12-12-|7-7-7-7-7-7-7-7-|8-8-8-8-8-8-8-8-|7-7-7-7-11-11-11-11-|
 
Eb|--------------------|----------------------|--------------------|
Bb|--------------------|----------------------|--------------------|
Gb|--------------------|----------------------|--------------------|
Db|8-8-8-8-11-11-11-11-|12-12-12-12-11-11-8-3-|8-8-8-8-11-11-11-11-|
Ab|8-8-8-8-11-11-11-11-|12-12-12-12-11-11-8-3-|8-8-8-8-11-11-11-11-|
Db|8-8-8-8-11-11-11-11-|12-12-12-12-11-11-8-3-|8-8-8-8-11-11-11-11-|
 
 
[Outro] (2:55-3:07)
 
Eb|------------------------|
Bb|------------------------|
Gb|------------------------|
Db|11-12-8-7-5-3-0---------|
Ab|11-12-8-7-5-3-0---------|
Db|11-12-8-7-5-3-0---------|
 
 
 
 
 
Lead Guitar
 
[Intro] (0:00-0:15)
 
Eb|--------16------|
Bb|----15------15--|
Gb|----------------|
Db|0-0-------------|  (x2)
Ab|0-0-------------|
Db|0-0-------------|
  PM PM
 
 
Eb|---------------------|           |/15-15-15-15-15-15-15-15-15-15-15-15-15-15-15-15|16b-16b-16b-16b-|
Bb|---------------------|           |------------------------------------------------|----------------|
Gb|---------------------|           |------------------------------------------------|----------------|
Db|---------------------| (x2)      |------------------------------------------------|----------------|
Ab|---------------------|           |------------------------------------------------|----------------|
Db|6--6-5--3-0--0-------|           |------------------------------------------------|----------------|
 
 
[Verse 1] (0:28-0:41)
 
Eb|---------------------------------------------------------------------------|
Bb|-------9----------------9------------------9----------9--------9-----------|
Gb|7--10-----10-7----7--10----10-7-----7--10-----10-7-------10-7-----10-7-----|
Db|---------------------------------------------------------------------------|  (x2)
Ab|---------------------------------------------------------------------------|
Db|---------------------------------------------------------------------------|
 
 
[Pre-chorus] (0:41-0:44)
 
Eb|-----------------------------------------|
Bb|-----------------------------------------|
Gb|7-7-7----7-7-7----7-7-7----7-7-7---------|
Db|-----------------------------------------|
Ab|5-5-5----5-5-5----5-5-5----5-5-5---------|
Db|-----------------------------------------|
 
 
[Chorus] (0:45-1:11) x2
 
Eb|--------16------|
Bb|----15------15--|
Gb|----------------|
Db|0-0-------------|  (x2)
Ab|0-0-------------|
Db|0-0-------------|
  PM PM
 
 
Eb|---------------------|           |---------------|
Bb|---------------------|           |---------------|
Gb|---------------------|           |---------------|
Db|---------------------| (x2)      |3-3-3-3-5-5-5-5|
Ab|---------------------|           |3-3-3-3-5-5-5-5|
Db|6--6-5--3-0--0-------|           |3-3-3-3-5-5-5-5|
 
 
[Verse 2] (1:28-1:40)
 
Eb|---------------------------------------------------------------------------|
Bb|-------9----------------9------------------9----------9--------9-----------|
Gb|7--10-----10-7----7--10----10-7-----7--10-----10-7-------10-7-----10-7-----|
Db|---------------------------------------------------------------------------|  (x2)
Ab|---------------------------------------------------------------------------|
Db|---------------------------------------------------------------------------|
 
 
[Pre-chorus] (1:41-1:44)
 
Eb|--------------------------------------------------|
Bb|--------------------------------------------------|
Gb|--------------------------------------------------|
Db|--------------------------------------------------|
Ab|-----------------0-0-0-0-0-0-0-0-0-0-0-0-0-0-0-0--|
Db|0--0--0--0-////--0-0-0-0-0-0-0-0-0-0-0-0-0-0-0-0--|
                 PM--------------------------------
 
[Chorus] (1:45-2:11)x2
 
Eb|--------16------|
Bb|----15------15--|
Gb|----------------|
Db|0-0-------------|  (x2)
Ab|0-0-------------|
Db|0-0-------------|
  PM PM
 
 
Eb|---------------------|           |---------------|
Bb|---------------------|           |---------------|
Gb|---------------------|           |---------------|
Db|---------------------| (x2)      |3-3-3-3-5-5-5-5|
Ab|---------------------|           |3-3-3-3-5-5-5-5|
Db|6--6-5--3-0--0-------|           |3-3-3-3-5-5-5-5|
 
 
[Bridge/Solo] (2:17-2:30)
 
Eb|-----------------------------------------------------|
Bb|7h8--8b--8*--8-7---------------8-7-------------------|
Gb|-----------------5-7-5-7-7~--------5-7-5-7-7~----5-7-|
Db|---------------------------7~------------------7-----|
Ab|-----------------------------------------------------|
Db|-----------------------------------------------------|
               PM----------       ------------
 
Eb|/13-13-13-13-13-13-13-13-12-12-12-12-12-12-12-12-|
Bb|-------------------------------------------------|
Gb|-------------------------------------------------|
Db|-------------------------------------------------|
Ab|-------------------------------------------------|
Db|-------------------------------------------------|
 
 
Eb|12p10----12p10-----------------12p10----12p10----------------|
Bb|------10-------10/15-15-15-15--------10-------10/15-15-15-15-|
Gb|-------------------------------------------------------------|
Db|-------------------------------------------------------------|
Ab|-------------------------------------------------------------|
Db|-------------------------------------------------------------|
 
Eb|/15-15-15-15-15-15-15-15-15-15-15-15-15-15-15-15|16b-16b-16b-16b-|
Bb|------------------------------------------------|----------------|
Gb|------------------------------------------------|----------------|
Db|------------------------------------------------|----------------|
Ab|------------------------------------------------|----------------|
Db|------------------------------------------------|----------------|
 
 
 
[Chorus] (2:31-2:54)
 
Eb|------------------------|----------------|----------------|--------------------|
Bb|------------------------|----------------|----------------|--------------------|
Gb|------------------------|----------------|----------------|--------------------|
Db|12-12-12-12-12-12-12-12-|7-7-7-7-7-7-7-7-|8-8-8-8-8-8-8-8-|7-7-7-7-11-11-11-11-|
Ab|12-12-12-12-12-12-12-12-|7-7-7-7-7-7-7-7-|8-8-8-8-8-8-8-8-|7-7-7-7-11-11-11-11-|
Db|12-12-12-12-12-12-12-12-|7-7-7-7-7-7-7-7-|8-8-8-8-8-8-8-8-|7-7-7-7-11-11-11-11-|
 
Eb|--------------------|----------------------|--------------------|
Bb|--------------------|----------------------|--------------------|
Gb|--------------------|----------------------|--------------------|
Db|8-8-8-8-11-11-11-11-|12-12-12-12-11-11-8-3-|8-8-8-8-11-11-11-11-|
Ab|8-8-8-8-11-11-11-11-|12-12-12-12-11-11-8-3-|8-8-8-8-11-11-11-11-|
Db|8-8-8-8-11-11-11-11-|12-12-12-12-11-11-8-3-|8-8-8-8-11-11-11-11-|
 
 
[Outro] (2:55-3:07)
 
Eb|------------------------|
Bb|------------------------|
Gb|------------------------|
Db|11-12-8-7-5-3-0---------|
Ab|11-12-8-7-5-3-0---------|
Db|11-12-8-7-5-3-0---------|
            
Submit corrections

↑ Back to top | Tablatures and chords for acoustic guitar and electric guitar, ukulele, drums are parodies/interpretations of the original songs. You may use it for private study, scholarship, research or language learning purposes only