Home » A » Asian Kung-Fu Generation »

Asian Kung-Fu Generation - Re Re Tabs

Artists:  A B C D E F G H I J K L M N O P Q R S T U V W X Y Z # 

Re Re Tabs

(ver. 2) Click to play this song!
Asian Kung-Fu Generation
[Intro]
e|--7-7-7-7-7-7-7--7-x-7-x-7-x-7-7-7-7-7-7-7-7-7-7--------------------------------------------|
B|-------------------------------------------------10-x-10-x-10-10-10--9-x-9-x-9-9-9-9-9------|
G|--------------------------------------------------------------------------------------------|
D|--------------------------------------------------------------------------------------------|
A|--------------------------------------------------------------------------------------------|
E|--------------------------------------------------------------------------------------------|

e|----7-0-7-0-7-7-7-7-x-7-7-7-7-7----0----0-------------0---0------------------|
B|--------------------------------10---10---10-10-10--9---9---9-9-9-9-9--------|
G|-----------------------------------------------------------------------------|
D|-----------------------------------------------------------------------------|
A|-----------------------------------------------------------------------------|
E|-----------------------------------------------------------------------------|

e|--7p0-7h9p7h9----0----------------------|
B|---------------5---5-9-9-9-7-9-7--------|
G|----------------------------------------|   (x8)
D|----------------------------------------|
A|----------------------------------------|
E|----------------------------------------|

e|--------------7---7h9p7h9p7h9p7h9-------|
B|--7---7h9p7h9---9-----------------------|
G|----------------------------------------|   (x3)
D|----------------------------------------|
A|----------------------------------------|
E|----------------------------------------|

e|--------------7---7h9p7h9p7-12p9h12p9---|
B|--7---7h9p7h9---9-----------------------|
G|----------------------------------------|
D|----------------------------------------|
A|----------------------------------------|
E|----------------------------------------|

e|--------------7---7h9p7h9p7h9p7h9-------|
B|--7---7h9p7h9---9-----------------------|
G|----------------------------------------|   (x3)
D|----------------------------------------|
A|----------------------------------------|
E|----------------------------------------|

e|--------------7------------7-0-9--------|
B|--7---7h9p7h9---9--7-0-9-0-------0------|
G|----------------------------------------| 
D|----------------------------------------|
A|----------------------------------------|
E|----------------------------------------|

    Palm mute the open strings
e|---------7-0-9-----------7-0-9---|
B|-7-0-9-0-------0-7-0-9-0-------0-|
G|---------------------------------|   (x8)
D|---------------------------------|
A|---------------------------------|
E|---------------------------------|

[Verse]
   Palm mute the open strings
e|---------7-0-9-----------7-0-9---|
B|-7-0-9-0-------0-7-0-9-0-------0-|
G|---------------------------------|     (x8)
D|---------------------------------|
A|---------------------------------|
E|---------------------------------|

[Chorus]
e|----------------------------------|
B|----------------------------------|
G|-13-11-11-11--x-x--13-13--11\9-9--|    (x4)
D|-x---x--x--x--x-x--x---x--x----x--|
A|-11-9--9--9---x-x--11-13--9-\7-7--|
E|----------------------------------|

[Fill]
   Palm mute the open strings
e|---------7-0-9-----------7-0-9---|
B|-7-0-9-0-------0-7-0-9-0-------0-|
G|---------------------------------|     (x4)
D|---------------------------------|
A|---------------------------------|
E|---------------------------------|

[Verse]
    Palm mute the B string
e|--------11----12-11----11--------11----12-11----11--|
B|--12-12----12-------12-----12-12----12-------12-----|
G|----------------------------------------------------|    (x3)
D|----------------------------------------------------|
A|----------------------------------------------------|
E|----------------------------------------------------|

e|--------11----12-11----11--------11----12-11--------|
B|--12-12----12-------12-----12-12----12-------12\0---|
G|----------------------------------------------------|   
D|----------------------------------------------------|
A|----------------------------------------------------|
E|----------------------------------------------------|

[Verse]
   Palm mute the open strings
e|---------7-0-9-----------7-0-9---|
B|-7-0-9-0-------0-7-0-9-0-------0-|
G|---------------------------------|     (x4)
D|---------------------------------|
A|---------------------------------|
E|---------------------------------|

[Chorus]
e|----------------------------------|
B|----------------------------------|
G|-13-11-11-11--x-x--13-13--11\9-9--|    (x4)
D|-x---x--x--x--x-x--x---x--x----x--|
A|-11-9--9--9---x-x--11-13--9-\7-7--|
E|----------------------------------|

[Fill]
e|--/10--10--14--10--15--14--10--14--|
B|-----------------------------------|
G|-----------------------------------|
D|-----------------------------------|
A|-----------------------------------|
E|-----------------------------------|

e|--10--10--14--10--15--14--10--14--|
B|----------------------------------|
G|----------------------------------|    (x6)
D|----------------------------------|
A|----------------------------------|
E|----------------------------------|

e|--10--10--14--10--15--14--10\0----|
B|----------------------------------|
G|----------------------------------|
D|----------------------------------|
A|----------------------------------|
E|----------------------------------|

e|---------7-0-9-----------7-0-9---|
B|-7-0-9-0-------0-7-0-9-0-------0-|
G|---------------------------------|     (x4)
D|---------------------------------|
A|---------------------------------|
E|---------------------------------|

[Solo]
e|---------------------------------------------------------------|
B|------4h5--4~--------4h5--4--------4h5--4--------4h5--4--------|
G|--1~-----------4-------------4-1~----------4-2~----------4-----|
D|-----------------4~--------------------------------------------|
A|---------------------------------------------------------------|
E|---------------------------------------------------------------|

e|--7--5--4--5--4--2--4--2--0--2--0-----|
B|-----------------------------------4--|    
G|--------------------------------------|       (x2)
D|--------------------------------------|
A|--------------------------------------|
E|--------------------------------------|

[Verse without guitar]

[Outro]
e|---------7-0-9-----------7-0-9---|
B|-7-0-9-0-------0-7-0-9-0-------0-|
G|---------------------------------|     (x16)
D|---------------------------------|
A|---------------------------------|
E|---------------------------------|
            
Submit corrections

↑ Back to top | Tablatures and chords for acoustic guitar and electric guitar, ukulele, drums are parodies/interpretations of the original songs. You may use it for private study, scholarship, research or language learning purposes only