Home » A » Ashes Divide »

Ashes Divide - The Stone Bass

Artists:  A B C D E F G H I J K L M N O P Q R S T U V W X Y Z # 

The Stone Bass

(ver. 1) Click to play this song!
Ashes Divide
-------------------------------------------------------------------------------
-------------------------------------------------------------------------------

Tuning: Db Gb B E ( three steps down )

( Explanation  /:Slide Up  \:Slide Down )

Intro #1  (0:00)
E |--------------------------------|
B |--------------------------------|
Gb|--------------------------------|
Db|-------------------/7---5---3---|


Intro #2  (0:24)  (play 2 times)
E |------------------------------|
B |------------------------------|
Gb|--------5--5------------------|
Db|-7-7-5h7------7-7-5h7-3--5-0--|

E |-------------------------------|
B |-------------------------------|
Gb|--------5--5-------------------|
Db|-7-7-5h7------7-7-5h7-3--5-0-5-|


Verse  (0:44)
E |-----------------------------------------------|
B |-----------------------------------------------|
Gb|------------------------------------/7777799---|
Db|-77777777/1010101010101010\33333333---------10-|  -10th flets

E |-------------------------------------|
B |-------------------------------------|
Gb|-------------------------------------|
Db|-77777777-55555555-33333333-33333333-|


Chorus #1  (1:04)
E |-------------------------------------|
B |-------------------------------------|
Gb|-------------------33333333-55555555-|
Db|-00000000-55555555-------------------|

E |------------------------------------------|
B |------------------------------------------|
Gb|-7-----------------33333333---------------|
Db|--0000000-55555555----------3333/15151515-|  -15th flets


Interlude  (1:25)
E |---------------------------------------|
B |---------------------------------------|
Gb|--------------------------------3-2----|
Db|-0--------0--------0--------0--0---320-|


Verse  (1:35)


Chorus #1  (1:55)


Bridge #1  (2:15)
E |-----------------------------------------------|
B |-----------------------------------------------|
Gb|------------------------------------/7777799---|
Db|-77777777/1010101010101010\33333333---------10-|  -10th flets

E |-------------------------------------|
B |-------------------------------------|
Gb|-------------------------------------|
Db|-77777777-55555555-33333333-33333333-|


Bridge #2  (2:36)
E |-------------------------------------|
B |-------------------------------------|
Gb|-77777777-88888888-99999999-88888888-|
Db|-------------------------------------|

E |-------------------------------------|
B |-------------------------------------|
Gb|-77777777-88888888-99999999-8\-------|
Db|-------------------------------------|


Chorus #2  (2:55)
E |-------------------------------------|
B |-------------------------------------|
Gb|-------------------33333333-55555555-|
Db|-00000000-55555555-------------------|

E |-------------------------------------|
B |-------------------------------------|
Gb|-7--------------------------55555555-|
Db|--0000000-55555555-33333333----------|


Chorus #1  (3:16)


Outro  (3:36)
E |--------------------------------------|
B |--------------------------------------|
Gb|--------------------------------------|
Db|-00-0------00-0-----00-0------00-0----|
            
Submit corrections

↑ Back to top | Tablatures and chords for acoustic guitar and electric guitar, ukulele, drums are parodies/interpretations of the original songs. You may use it for private study, scholarship, research or language learning purposes only