Home » A » Asaf Avidan And The Mojos »

Asaf Avidan And The Mojos - Earth Odyssey Chords

Artists:  A B C D E F G H I J K L M N O P Q R S T U V W X Y Z # 

Earth Odyssey Chords
Version #1
Asaf Avidan And The Mojos


Copy URL
[Intro]
 
e|-------4---4---5p4--4-|
B|-----5---5---5-----5--|
G|----------------------|
D|----------------------| x2
A|----------------------|
E|--0-------------------|
 
e|--------------------------|
B|-----4/5-5-5-5-5--5-4/5-5-|
G|--------------------------|
D|--------------------------| x2
A|--0-----------------------|
E|--------------------------|
 
[Verse 1]
 
E
Wake up from your sleep, take a deep breath
    A
And let it all out (Over and over again)
E
Tear away your dreams by the seams
     A
And throw them about (Over and over again)
E
Fall back to your corner, it's over
       A
The game was rigged from the start
E
Hold your body, embrace it, and taste it
    A
As it's falling apart
 
 
[Chorus]
 
D
Something out of nothing
                 A           E
Still amounts to nothing at all
 
Oh no, you’re not that strong
D
Something out of nothing
                 A            E
Still amounts to nothing at all
 
Let’s run and run and run and run
 
[Instrumental]
 
e|-------4---4---5p4--4-|
B|-----5---5---5-----5--|
G|----------------------|
D|----------------------| x2
A|----------------------|
E|--0-------------------|
 
e|--------------------------|
B|-----4/5-5-5-5-5--5-4/5-5-|
G|--------------------------|
D|--------------------------| x2
A|--0-----------------------|
E|--------------------------|
 
[Verse 2]
 
E
Get down from your feet, take a seat
    A
And watch it go by (Over and over again)
E
Spend away your years through your fears
    A
And let it all fly (Over and over again)
 
[Chorus]
 
D
Something out of nothing
                 A           E
Still amounts to nothing at all
 
Oh no, you’re not that strong
D
Something out of nothing
                 A            E
Still amounts to nothing at all
 
Let’s run and run and run and run
 
[Bridge]
 
Bm     A           E
Emancipated and sedated, can’t you tell?
Bm     A          E
Dilapidated, consecrated to the art of singing
 
[Outro]
 
D               A                E
Nah-nah-nah-nah-nah-nah-nah-nah-nah
 
The world is spinning under
D               A                E
Nah-nah-nah-nah-nah-nah-nah-nah-nah
 
And everybody’s singing to their graves
D               A                E
Nah-nah-nah-nah-nah-nah-nah-nah-nah
 
And the world keeps spinning on and on and on
D               A                E
Nah-nah-nah-nah-nah-nah-nah-nah-nah
 
We’re all racing to the point of no return
D               A                E
Nah-nah-nah-nah-nah-nah-nah-nah-nah
 
Keep singing like there’s no tomorrow
 
e|-------4---4---5p4--4-|
B|-----5---5---5-----5--|
G|----------------------|
D|----------------------| x2
A|----------------------|
E|--0-------------------|
 
e|--------------------------|
B|-----4/5-5-5-5-5--5-4/5-5-|
G|--------------------------|
D|--------------------------| x2
A|--0-----------------------|
E|--------------------------|
 
            
Submit corrections

↑ Back to top | Tablatures and chords for acoustic guitar and electric guitar, ukulele, drums are parodies/interpretations of the original songs. You may use it for private study, scholarship, research or language learning purposes only