Home » A » Arthur Joseph »

Arthur Joseph - Honey And The Moon Tabs

Artists:  A B C D E F G H I J K L M N O P Q R S T U V W X Y Z # 

Honey And The Moon Tabs

(ver. 1) Click to play this song!
Arthur Joseph
Pretty simple song, pretty simple strum pattern, just listen to the song you'll get it.  Enjoy.

Tuning: EADGBe  (capo 7)


Intro/Verse:

       C          C?        F             G         Am                Em
e|--------------------------------------------------------0------0----------|
B|--------1---------3----------------------3--------0h1----0h1-------0----0-|
G|------0---------0-----------2-----------0--------2------2---------0-----0-|
D|----2---------0-----------3-----------0---------2------2---------2------2-|
A|--3---------2-----------3-----------2---------0-------0---------2------2--|
E|----------------------1-----------3----------------------------0------0---|


Chorus:

e|---------------------------------------------------------------------------|
B|--------------3------1------1----------------------------------------------|
G|-----2-------0------0------2-----------------------------------------------|
D|----3-------0------2------2----------x2------------------------------------|
A|---3-------2------3------0-------------------------------------------------|
E|--1-------3----------------------------------------------------------------|

"right now, i wish i could follow you.."
e|--------------------------  |  -----------0----------|
B|-------------3-------1----  |  -----0h1--------------|
G|-----2------0-------0-----  |  ----2-----------------|
D|----3------0-------2------  |  ---2-----------x4-----|
A|---3------2-------3-------  |  --0-------------------|
E|--1------3----------------  |  ----------------------|

"to the shores.."              "of freedom"
e|-----------------------------------------------------------------------------|
B|-------0-------------------------------3-------------------------------------|
G|------0-------------------------------0--------------------------------------|
D|-----2-------x4----------------------0----------x4---------------------------|
A|----2-------------------------------2----------------------------------------|
E|---0-------------------------------3-----------------------------------------|

"where no one lives"
Repeat intro

Verse 2

Chorus

Bridge:

"freedom, freedom,"                     run away tonight,.."

e|-------------------------------         ---0-----------------------------|
B|-----1-------3------------3----         ---1-------------0---------------|
G|----0-------0-----2------0-----         ---2-------------0---------------|
D|---2-------0-----3------0------         ---2----x2-------2-------x2------|
A|--3-------2-----3------2-------         ---0-------------2---------------|
E|---------------1------3--------         -----------------0---------------|

Verse 3

Chorus

Bridge

Verse 4

Chorus

Bridge, fadeout


| /  slide up
| \  slide down
| h  hammer-on
| p  pull-off
| ~  vibrato
| +  harmonic
| x  Mute note
            
Submit corrections

↑ Back to top | Tablatures and chords for acoustic guitar and electric guitar, ukulele, drums are parodies/interpretations of the original songs. You may use it for private study, scholarship, research or language learning purposes only