» » »

A Rocket To The Moon - If Only They Knew Bass

Artists:  A B C D E F G H I J K L M N O P Q R S T U V W X Y Z # 

If Only They Knew Bass

(ver. 1) Click to play this song!
A Rocket To The Moon
 Rating:
4.3/5 (6 votes)
                there are two thing that you can do for this song but the whole song is consistant of 
parts

-----------------------------------------------------------|
-----------------------------------------------------------|
-------6-------8-8-6-8/10-8-6------------------------------|
-4-4-4---8-6-----------------------------------------------|

and

-----------------------------------------------------------|
-----------------------------------------------------------|
-------6---------------------------------------------------|
-4-4-4---6-6-8-8-8-8-8-------------------------------------|

very simple song the only variation is in the breakdown in which you do this

-----------------------------------------------------------|
-----------------------------------------------------------|
-----------------------------------------------------------|X4
-4-4-4--6-6-6--8-8-8-10-10-10--/0--------------------------|

thats it just listen through the song to find where to put what.  please rate and comment.
            
Submit corrections

↑ Back to top | Tablatures and chords for acoustic guitar and electric guitar, ukulele, drums are parodies/interpretations of the original songs. You may use it for private study, scholarship, research or language learning purposes only