» » »

Arctic Monkeys - Snap Out Of It Tabs

Artists:  A B C D E F G H I J K L M N O P Q R S T U V W X Y Z # 

Snap Out Of It Tabs

(ver. 3) Click to play this song!
Arctic Monkeys
 Rating:
2.4/5 (23 votes)

 Snap Out Of It lessons Tabs too difficult? Try these video lessons and learn fast
 
                Tuning: Standard  E A D G B E

INTRO

        Fm           F5   C5   F5   C5    F5    C5   F5   C5
e|--1----------------------------------------------------------|
B|----1--------------------------------------------------------|
G|------1------------------------------------------------------|
D|--------3--------3-3-3--2-2--3-3--2-2--3-3-3--2-2--3-3--2-2--|
A|----------3------3-3-3--3-3--3-3--3-3--3-3-3--3-3--3-3--3-3--|
E|------------1------------------------------------------------|
    ?              ? ? *  * *  * *  * *  ? * *  * *  * *  * *

-------------------------------------------------------------------------------

VERSE

     F5    C5   F5   C5    F5    C5   F5   C5
e|----------------------------------------------|
B|----------------------------------------------|
G|----------------------------------------------| X2
D|--3-3-3--2-2--3-3--2-2--3-3-3--2-2--3-3--2-2--|
A|--3-3-3--3-3--3-3--3-3--3-3-3--3-3--3-3--3-3--|
E|----------------------------------------------|
    ? ? *  * *  * *  * *  ? * *  * *  * *  * *


    Bb5
e|----------------------------------------------|
B|----------------------------------------------|
G|-3-3-3--3-3--3-3--3-3--3-3-3--3-3--3-3--3-3---|
D|-3-3-3--2-2--3-3--2-2--3-3-3--2-2--3-3--2-2---|
A|-1-1-1--1-1--1-1--1-1--1-1-1--1-1--1-1--1-1---|
E|----------------------------------------------|
   ? ? *  * *  * *  * *  ? * *  * *  * *  * *


    Bb5                                C5
e|-----------------------------------------------|
B|-----------------------------------------------|
G|-3-3-3--3-3--3-3--3-3--3-3-3--3-3--------------|
D|-3-3-3--2-2--3-3--2-2--3-3-3--2-2--2-2-2--2-2--|
A|-1-1-1--1-1--1-1--1-1--1-1-1--1-1--3-3-3--3-3--|
E|-----------------------------------------------|
   ? ? *  * *  * *  * *  ? * *  * *  ? * *  * *

-------------------------------------------------------------------------------

CHORUS


       C#5                         F5           Ab5
e|-------------------------------------------------------|
B|-------------------------------------------------------|
G|----6-6--6-6--6-6--6-6--6-6----------------------------| X3
D|--0-6-6--6-6--6-6--6-6--6-6--0-3-3--3-3--0-6-6--6-6-6--|
A|--0-4-4--4-4--4-4--4-4--4-4--0-3-3--3-3--0-6-6--6-6-6--|
E|--0--------------------------0-1-1--1-1--0-4-4--4-4-4--|
    ? ? *  * *  ? *  * *  ? *  ? * *  * *  ? * *  * ? *

       C#5                     C5      Bb5    Ab5      G5
e|-----------------------------------------------------------|
B|-----------------------------------------------------------|
G|----6-6--6-6--6-6--6-6--6----------------------------------| 
D|--0-6-6--6-6--6-6--6-6--6--0-10-10--0-8-8--0-6-6--0-5-5-5--|
A|--0-4-4--4-4--4-4--4-4--4--0-10-10--0-8-8--0-6-6--0-5-5-5--|
E|--0------------------------0-8--8---0-6-6--0-4-4--0-3-3-3--|
    ? ? *  * *  ? *  * *  *  * *  *   * * *  * * *  * * * *

-------------------------------------------------------------------------------

BRIDGE


     F5                    F5    C5   F5   C5
e|----------------------------------------------|
B|----------------------------------------------|
G|----------------------------------------------|
D|--3-3-------------------3-3-3--2-2--3-3--2-2--|
A|--3-3-------------------3-3-3--3-3--3-3--3-3--|
E|----------------------------------------------|
    ? ?                   ? * *  * *  * *  * *

     F5    C5   F5   C5    F5    C5   F5   C5
e|----------------------------------------------|
B|----------------------------------------------|
G|----------------------------------------------| X2
D|--3-3-3--2-2--3-3--2-2--3-3-3--2-2--3-3--2-2--|
A|--3-3-3--3-3--3-3--3-3--3-3-3--3-3--3-3--3-3--|
E|----------------------------------------------|
    ? ? *  * *  * *  * *  ? * *  * *  * *  * *

     F5    C5   F5   C5    F5    C5   F5   C5
e|------------------------------------------------|
B|------------------------------------------------|
G|------------------------------------------------|
D|--3-3-3--2-2--3-3--2-2--3-3-3--2-2--2-2-2--2-2--|
A|--3-3-3--3-3--3-3--3-3--3-3-3--3-3--3-3-3--3-3--|
E|------------------------------------------------|
    ? ? *  * *  * *  * *  ? * *  * *  ? * *  * *            
Submit corrections


        Snap Out Of It lessons Hard to play? Try these video lessons and learn fast Snap Out Of It lessons
        
↑ Back to top | Tablatures and chords for acoustic guitar and electric guitar, ukulele, drums are parodies/interpretations of the original songs. You may use it for private study, scholarship, research or language learning purposes only