» » »

Arctic Monkeys - One Point Perspective Tabs

Artists:  A B C D E F G H I J K L M N O P Q R S T U V W X Y Z # 

One Point Perspective Tabs

(ver. 1) Click to play this song!
Arctic Monkeys
 Rating:
4.3/5 (27 votes)

 One Point Perspective lessons Tabs too difficult? Try these video lessons and learn fast
 
                [Intro]
e|-1--1--1--1--1--1--1--1--|
B|-3--3--3--3--3--3--3--3--|
G|-3--3--3--3--3--3--3--3--|  X4
D|-------------------------| 
A|-------------------------|
E|-------------------------|

[Verses and solo]
e|-1--1--1--1--1--1--1--1--3--3--3--3--3--3--3--3--|
B|-3--3--3--3--3--3--3--3--4--4--4--4--4--4--4--4--| 
G|-3--3--3--3--3--3--3--3--4--4--4--4--4--4--4--4--|
D|(5)----------------------5--5--5--5--5--5--5--5--|
A|-------------------------------------------------|
E|-------------------------------------------------|
(1) Dancing in my underpants, I'm gonna run for government 
(2) I fantasise, I call it quits, I swim with the economist
(3) "Singsong 'round the money tree", This stunning documentary


e|--3--3--3--3--3--3--3--3--3--3--3--3--3--3--3--3--|
B|--4--4--4--4--4--4--4--4--4--4--4--4--4--4--4--4--|   
G|--5--5--5--5--5--5--5--5--6--6--6--6--6--6--6--6--|
D|--5--5--5--5--5--5--5--5--5--5--5--5--5--5--5--5--| ("stop")
A|--------------------------------------------------|
E|--------------------------------------------------|
(1) I'm gonna form a covers band an'all
(2) And I get to the bottom of it for good
(3) that no one else unfortunately saw


e|--3--3--3--3--3--3--3--3--3--3--3--3--3--3--3--3--|
B|--4--4--4--4--4--4--4--4--4--4--4--4--4--4--4--4--|   
G|--5--5--5--5--5--5--5--5--4--4--4--4--4--4--4--4--|
D|--------------------------------------------------|
A|--------------------------------------------------|
E|--------------------------------------------------|
(1) Back there by the baby grand, did Mr Winter Wonderland say
(2) By the time reality hits, the chimes of freedom fell to bits 
(3) Such beautiful photography, it's worth it for the opening scene 


e|--1--1--1--1--1--1--1--1--3----------------3------------|        
B|--3--3--3--3--3--3--3--3--4--(lick)--4--6------4--------|        
G|--3--3--3--3--5--5--4--4--5-----------------------------|        
D|--------------------------------------------------------|        
A|--------------------------------------------------------|        
E|--------------------------------------------------------|        
(1) "Come 'ere, kid, we really need to talk" ?
(2) The shining city on the fritz
(3)I've been driving 'round listening to the score


e|--3--3--3--3--3--3--3--3--1--1--1--1--1--1--1--1--|
B|--4--4--4--4--4--4--4--4--4--4--4--4--4--4--4--4--|   
G|--5--5--5--5--5--5--5--5--4--4--4--4--4--4--4--4--|
D|--------------------------------------------------|
A|--------------------------------------------------|
E|--------------------------------------------------|
(1) Bear with me, man, I lost my train of thought
(2) They come out of the cracks, thirsty for blood
(3) Or maybe I just, imagined it all


e|--1--1--1--1--1--1--1--1--1--1--1--1--1--1--1--1--|
B|--3--3--3--3--3--3--3--3--3--3--3--3--3--3--3--3--|   
G|--3--3--3--3--3--3--3--3--3--3--3--3--3--3--3--3--|   Only the 2 first times
D|--------------------------------------------------|
A|--------------------------------------------------|
E|--------------------------------------------------|
REPEAT

                    

Cm               Gm                Fm
Oh, just as the apocalypse finally gets prioritised
Fm               Gm              Cm 
And you cry some of the hottest tears you ever cried
Gm                  Fm
Multiplied by five
                        Emaj7
I suppose a singer must die

    
                   
[CODA]x3
e|--1--1--1--1--1--1--1--1--3----------------3------------|        
B|--3--3--3--3--3--3--3--3--4--(lick)--4--6------4--------|        
G|--3--3--3--3--5--5--4--4--5-----------------------------|        
D|--------------------------------------------------------|        
A|--------------------------------------------------------|        
E|--------------------------------------------------------|
(3) I've played to quiet rooms, like this before
                                                             
e|--3--3--3--3--3--3--3--3--1--1--1--1--1--1--1--1--|
B|--4--4--4--4--4--4--4--4--4--4--4--4--4--4--4--4--|   
G|--5--5--5--5--5--5--5--5--4--4--4--4--4--4--4--4--|
D|--------------------------------------------------|
A|--------------------------------------------------|
E|--------------------------------------------------|
(3) Bear with me, man, I lost my train of thought            
Submit corrections


        One Point Perspective lessons Hard to play? Try these video lessons and learn fast One Point Perspective lessons
        
↑ Back to top | Tablatures and chords for acoustic guitar and electric guitar, ukulele, drums are parodies/interpretations of the original songs. You may use it for private study, scholarship, research or language learning purposes only