» » »

Arctic Monkeys - Dont Sit Down Cause Ive Moved Your Chair Tabs

Artists:  A B C D E F G H I J K L M N O P Q R S T U V W X Y Z # 

Dont Sit Down Cause Ive Moved Your Chair Tabs

(ver. 9) Click to play this song!
Arctic Monkeys
 Rating:
4.3/5 (22 votes)


 Dont Sit Down Cause Ive Moved Your Chair lessons Tabs too difficult? Try these video lessons and learn fast
 
                [Solo]
e|-----------------------------------------------------------------|
b|-----------------------------------------------------------------|
g|-2---2--2-2-2/10-10-10/-2-2/10-10-10--10-10/-2-2/10-10--10-10/-2-|
D|-----------------------------------------------------------------|
A|-----------------------------------------------------------------|
D|-----------------------------------------------------------------|

e|-----------------------------------------------------------------|
b|--------------------------------------------1-3/5/3-1-3-3p1---1/-|
g|-/12-12p10-/12-12p10-12/10-12/14-12/10--2-2-----------------2----|
D|-----------------------------------------------------------------|
A|-----------------------------------------------------------------|
D|-----------------------------------------------------------------|

e|----------------------------------------------------------------|
b|-13b------------------------------------------------------------|
g|-------/7--/10--/7--/10--/7--/10--/7--10/--/7--/13--/7--/13--/7-|
D|----------------------------------------------------------------|
A|----------------------------------------------------------------|
D|----------------------------------------------------------------|

e|--------------|
b|--------------|
g|-/13--/7--/13-|
D|--------------|
A|--------------|
D|--------------            
Submit corrections



        Dont Sit Down Cause Ive Moved Your Chair lessons Hard to play? Try these video lessons and learn fast Dont Sit Down Cause Ive Moved Your Chair lessons
        
↑ Back to top | Tablatures and chords for acoustic guitar and electric guitar, ukulele, drums are parodies/interpretations of the original songs. You may use it for private study, scholarship, research or language learning purposes only