Home » A » Arctic Monkeys »

Arctic Monkeys - Cornerstone Tabs

Artists:  A B C D E F G H I J K L M N O P Q R S T U V W X Y Z # 

Cornerstone Tabs

(ver. 3) Click to play this song!
Arctic Monkeys
 Rating:
4.4/5 (11 votes)
                [Intro]
 
E|------0-2-4-5----------------------------|
B|--0-2---------2--------------------------|
G|-----------------------------------------|
D|-----------------------------------------|
A|-----------------------------------------|
E|-----------------------------------------|
 
 
[Verse 1]
Nothing until the verse Is finished, then:
E|--2--~0--------2-------------------------|
B|----2------------2-----------------------|
G|-------------------~2--------------------|
D|-----------------------------------------|
A|-----------------------------------------|
E|-----------------------------------------|
 
 
[Verse 2]
I thought I saw you in the Rusty Hook...
E|---------------------------~2---9-~2-----|
B|---3-2-0-2----------3-2-0-2--------------|
G|-----------~2----------------------------|
D|-----------------------------------------|
A|-----------------------------------------|
E|-----------------------------------------|
 
E|--2-0-----------------------2------------|
B|---2--2----------------------2-(Chorus)--|
G|-------2---------------------------------|
D|-----------------------------------------|
A|-----------------------------------------|
E|-----------------------------------------|
 
IMMEDIATELY INTO CHORUS
 
[Chorus 1]
 
E|--5----7---7---9---5---5-----7----7---7--|
B|--7-----7-7----10---7-7------7-----9-9---|
G|--7------7-----11----7-------7------9----|
D|-----------------------------------------|
A|-----------------------------------------|
E|-----------------------------------------|
 
E|--5--------5-2-4-0-----------------------|
B|--5---------------2-----0-2--------------|
G|--6------------------------2-------------|
D|-----------------------------------------|
A|-----------------------------------------|
E|-----------------------------------------|
 
 
[Verse 3]
Verse is played P.M
E|-0-9-7-9-5-2-4---------------------------|
B|---------------2-----x6------------------|
G|-----------------------------------------|
D|-----------------------------------------|
A|-----------------------------------------|
E|-----------------------------------------|
 
 
[Bridge]
 
E|--5-2-4-0-------5-2-4-0-------5-2-4-7-~9-|
B|---------2--0----------2--0--------------|
G|-----------------------------------------|
D|-----------------------------------------|
A|-----------------------------------------|
E|-----------------------------------------|
 
E|--12-10-9-7-~9--12-10-9-7~9---9/10-------|
B|-----------------------------------------|
G|-----------------------------------------|
D|-----------------------------------------|
A|-----------------------------------------|
E|-----------------------------------------|
 
[Chorus/Presolo]
 
E|--5----7---7---9---5---5---7----5---5---5|
B|--7-----7-7----10---7-7----7-----6-6-6-6-|
G|--7------7-----11----7-----7------7---7--|
D|-----------------------------------------|
A|-----------------------------------------|
E|-----------------------------------------|
 
E|----5------------------------------------|
B|-6-6-6-6-IMMEDIATELY INTO SOLO-----------|
G|--7---7----------------------------------|
D|-----------------------------------------|
A|-----------------------------------------|
E|-----------------------------------------|
 
 
[Solo]
 
E|--5-2-4-0--------------------------------|
B|----------~2----2-3-2-----~2--5----2-3-2-|
G|--------------------4-2-4------~4--------|
D|-----------------------------------------|
A|-----------------------------------------|
E|-----------------------------------------|
 
E|-------5-2-4-0----5-4-2-0----~0--~0----2-|
B|---------------2---------2---0---0---4--2|
G|-4-2-4-----------------------------------|
D|-----------------------------------------|
A|-----------------------------------------|
E|-----------------------------------------|
 
 
[Outro]
 
E|-0-9-7-9-5-2-4---------------------------|
B|---------------2-----x4------------------|
G|-----------------------------------------|
D|-----------------------------------------|
A|-----------------------------------------|
E|-----------------------------------------|
 
E|~0--0-2-4-5----0-2-4-5------------0------|
B|-----------------------~2---------2------|
G|----------------------------------2------|
D|----------------------------------2------|
A|----------------------------------0------|
E|-----------------------------------------|
            
Submit corrections

↑ Back to top | Tablatures and chords for acoustic guitar and electric guitar, ukulele, drums are parodies/interpretations of the original songs. You may use it for private study, scholarship, research or language learning purposes only