» » »

Archers Of Loaf - Hate Paste Tabs

Artists:  A B C D E F G H I J K L M N O P Q R S T U V W X Y Z # 

Hate Paste Tabs

(ver. 1) Click to play this song!
Archers Of Loaf
 Rating:
3.1/5 (27 votes)

 Hate Paste  lessons Tabs too difficult? Try these video lessons and learn fast
 
                ==Main riff==

E|--5--5-5-5-5----5--5-5-5-5----5--5-5-5-5-----------------|
B|--3--3-3-3-3----3--3-3-3-3----3--3-3-3-3----8v-8v-5v-3v--|
G|--2--2-2-2-2----2--2-2-2-2----2--2-2-2-2-----------------|
D|--0--0-0-0-0----0--0-0-0-0----0--0-0-0-0-----------------|
A|---------------------------------------------------------|
E|---------------------------------------------------------|

=Variation=

E|--5--5-5-5-5----5--5-5-5-5----5--5-5-5-5---------------|
B|--3--3-3-3-3----3--3-3-3-3----3--3-3-3-3---5/7v-5v-3v--|
G|--2--2-2-2-2----2--2-2-2-2----2--2-2-2-2---------------|
D|--0--0-0-0-0----0--0-0-0-0----0--0-0-0-0---------------|
A|-------------------------------------------------------|
E|-------------------------------------------------------|

Play during verse 2

==Verse 1==

[Main riff]
Bit my lip
              A5
And it's the same thing
     D5     G5           D5
Now I'm reduced to a pulp
[Main riff]               A5
Your undisturbed and decorated
     D5       G5   
Decorations lie


  D5
You're hounded by pulse

Stabbed by spit
             A5 
And your brain fits
  D5           G5
Despite your ears


  D5  
Another one has run in

Rottin' and gossiped
       A5
You're all used up  
        D5       G5
With a burst of shell

==Chorus==

=Chords=

  D5               A5
Why're you gonna try it
     D5                G5
If you know you don't like it
  D5                 A5
How're you gonna give it up
    D5         G5
If you ain't got it
 D5            A5
Why're gonna use it 
         D5              G5
If you think that it's broke
  D5               A5  
Why're you gonna swell to show
   D5                          G5        A5
The things that you're breaking down, down, down

=Lead part 1=

E|-19!-|
B|-19!-|
G|-19!-|
D|-19!-|
A|-19!-|
E|-----|

Played at the start of every line. Try and get your guitar to feedback as well 

=Lead part 2=

E|------------|
B|-----15-----|x4
G|--------14--|
D|--12--------|
A|------------|
E|------------|

Played during the last A5 chord

==Post chorus==

=Rhythm chords 1=

D5 A5 D5 G5 x2

=Lead 1=

E|--------------------------------------------------------------------|
B|--------------------------------------------------------------------|x2
G|--14--14-14-14-14--\7--7-7-7-7--/15--15-15-15-15--\12--12-12-12-12--|
D|--x---x--x--x--x----x--x-x-x-x---x---x--x--x--x----x---x--x--x--x---|
A|--12--12-12-12-12--\5--5-5-5-5--/13--13-13-13-13--\10--10-10-10-10--|
E|--------------------------------------------------------------------|

=Rhythm chords 2=

A5 B5 G5 A5 B5 D5 x2

=Lead 2=

E|------------------------------------------------------------------|
B|------------------------------------------------------------------|
G|--14--14-14--/16--\12--12-12-12-12--------------------------------|
D|--x---x--x----x----x---x--x--x--x-----7--7-7--/9--/12--12-12--\9--|
A|--12--12-12--/14--\10--10-10-10-10----x--x-x---x---x---x--x----x--|
E|--------------------------------------5--5-5--/7--/10--10-10--\7--|

E|-------------------------------------------------------------|
B|-------------------------------------------------------------|
G|-------------------------------------------------------------|
D|--7--7-7--/9--/12--12-12-12-12----7--7-7--/9--/12--/14--/12--|
A|--x--x-x---x---x---x--x--x--x-----x--x-x---x----x----x---x---|
E|--5--5-5--/7--/10--10-10-10-10----5--5-5--/7--/10--/12--/10--|

==Verse 2==

[Main riff variation]
Down cold thresh flesh paste
         A5
Deliver hate paste
       D5        G5
Voices sick and swelling
    D5
You say you don't like it
[Main riff variation] 
You say you don't like it
     A5
But you just don't get it
     D5        G5
You just don't get it


  D5
You're hounded by pulse,

Stabbed by spit
           A5
And your brain sh*ts
   D5          G5
To clog your ears

 
  D5
A casual mark

Made by a bird
 A5
What you lost
      D5        G5
With your fair hands

==Ending==

=Rhythm chords=

D5 A5 D5 G5 

=Lead 1=

E|-------------------------------|
B|--3-/14-\3-3-3----3-/7-\3-3-3--|
G|-------------------------------|
D|-------------------------------|
A|-------------------------------|
E|-------------------------------|

Repeat ad nauseam.

====Chords====

E|-------------------5---3------|
B|-------------------3---3---3--|
G|-------------------2---0---2--|
D|--7---12---5---9---0---0---2--|
A|--7---12---5---9-------x---0--|
E|--5---10---3---7-------3------|
    A5  D5   G5  B5  D   G   Asus4            
Submit corrections


        Hate Paste  lessons Hard to play? Try these video lessons and learn fast Hate Paste  lessons
        
↑ Back to top | Tablatures and chords for acoustic guitar and electric guitar, ukulele, drums are parodies/interpretations of the original songs. You may use it for private study, scholarship, research or language learning purposes only