» » »

Arch Enemy - Dead Bury Their Dead Bass

Artists:  A B C D E F G H I J K L M N O P Q R S T U V W X Y Z # 

Dead Bury Their Dead Bass

(ver. 1) Click to play this song!
Arch Enemy
 Rating:
4/5 (4 votes)

 Dead Bury Their Dead lessons Tabs too difficult? Try these video lessons and learn fast
 
                


reapet 2xs
|----------|
|----------|
|--7777/0--|
|----------|

|---------------|
|---------------|
|--7777/151515--|
|---------------|

verse
|----------------------------------------------|
|----------------------------------------------|
|--------7--8---5--5h7-----------7--8--3--3h5--|
|--0000----0--0--0--------0000-----0--0--0-----|

|----------|
|----------|
|--14\0----|
|----------|
reapt 4xs
|----------------------------------------------------|
|----------------------------------------------------|
|----7h8--7h8--7h8--7h8--8p10--8p10--5h7--5h7--5h7---|
|--0----0----0----0----0-----0-----0----0----0-------|
chours
reapet 2x
|---------------------------------------------------------------------------|
|---------------------------------------------------------------------------|
|----------7777777--88888888---33333333-----------77777777-8888888-333333-3~|
|--000000--------------------------------00000000---------------------------|

reapt 4xs
|----------------------------------------------------|
|----------------------------------------------------|
|----7h8--7h8--7h8--7h8--8p10--8p10--5h7--5h7--5h7---|
|--0----0----0----0----0-----0-----0----0----0-------|

chours
reapet 2x
|---------------------------------------------------------------------------|
|---------------------------------------------------------------------------|
|----------7777777--66666666---33333333-----------77777777-6666666-333333-3~|
|--000000--------------------------------00000000---------------------------|

|-------------------------------------------------------------------------|
|-------------------------------------------------------------------------|
|-----------777--777-666-666-333-333----------777-777-666-666-333-333-33--|
|--000--000--------------------------000--000-----------------------------|

|------------------------------------------------------------------|
|------------------------------------------------------------------|
|-----------555555555--------------7-5---7-5-----------------------|
|--77777777------------555555555-------7-----7---33333333-5555555--|
solo
|------------------------------------------|
|------------------------------------------|
|------------------------------------------|
|--2~---5~---7~---9~-10-----2~---7~---3~---|
slade down slow
|-------|
|-------|
|--16/--|
|-------|

duet repat 2xs
|------------------------------------------------------------------------|
|------------------------------------------------------------------------|
|------------------------------------------------------------------------|
|--12p15--12p15--12p15-12p15---15p17---15p17-15p17--17p19-17p19-17p19----|

|-----------------------------------------|
|-----------------------------------------|
|-----------------------------------------|
|--9h11--9p11-9p11-9p11--7p9-7p9-7p9-7p9--|

u just repet the verse and chourse and that all
            
Submit corrections


        Dead Bury Their Dead lessons Hard to play? Try these video lessons and learn fast Dead Bury Their Dead lessons
        
↑ Back to top | Tablatures and chords for acoustic guitar and electric guitar, ukulele, drums are parodies/interpretations of the original songs. You may use it for private study, scholarship, research or language learning purposes only