Home » A » Aqua Timez »

Aqua Timez - Alones Tabs

Artists:  A B C D E F G H I J K L M N O P Q R S T U V W X Y Z # 

Alones Tabs

(ver. 1) Click to play this song!
Aqua Timez
(Intro)
-------------------------------------------------------------------------------
                             Alones - Aqua Timez
-------------------------------------------------------------------------------

This is my first time putting up a tab so I hope its accurate, its the intro singing 
I made into gutiar tabs

Tuning: Standard Tuning

e|-------------------3-1-0--------------------------------------------3-1-0--|
B|-0-1-x-1-3-1-0-1-3------3-1-0-1-3-1-0-1-6-5-3-1-0-0-1-x-1-3-1-0-1-3------3-|
G|0-----------------0--------------------------2---2-----------------0-------|
D|---------------------------------------------------------------------------|
A|---------------------------------------------------------------------------|
E|---------------------------------------------------------------------------|

e|---------------------------------------------------------------------------|
B|1-x-1-3-1-0-1-6-5-3-1-0-0-1------------------------------------------------|
G|-------------------2---2---------------------------------------------------|
D|---------------------------------------------------------------------------|
A|---------------------------------------------------------------------------|
E|---------------------------------------------------------------------------|
            
Submit corrections

↑ Back to top | Tablatures and chords for acoustic guitar and electric guitar, ukulele, drums are parodies/interpretations of the original songs. You may use it for private study, scholarship, research or language learning purposes only