» » »

Aqualung - The Lake Tabs

Artists:  A B C D E F G H I J K L M N O P Q R S T U V W X Y Z # 

The Lake Tabs

(ver. 1) Click to play this song!
Aqualung
 Rating:
4/5 (4 votes)


 The Lake lessons Tabs too difficult? Try these video lessons and learn fast
 
                Piano arr. for Guitar.

Order:-

Verse I:

Part I  x2 (no vocals)
Part I  x2 (w/vocals)
Part II x1
Part I  x2
Part II x1

Chorus I

Part III  x1
Part IV   x1

Verse II

Part I  x2
Part II x2

Chorus II

Part III x1
Part V   x1

Outro Verse

Part I  x1  (w/vocals)
Part I  x2  (no vocals)

Chords:-

Dmaj7     - X X 0 7 10 9
Bm/D      - X X 0 7 7  7
F#sus4/C# - X 4 X 6 7  7
F#m/C#    - X 4 X 6 7  5
Bm7       - X 2 X 4 5  5
A5        - X 0 X 2 5  5

E         - X 7 6 4 5 4
G#m/Eb    - X 6 6 4 4 4
Fm        - X X 4 6 7 5
C/E       - X X 5 5 5 3
Bbm/F     - X 8 8 6 6 6
Dm        - X X 0 2 3 1
A/C#      - X 4 2 2 5 X

Tablature for the "parts"
 
Part I:

  Dmaj7        Bm/D         Dmaj7          Bm/D      
e|----9------9----7-----7--|---9------9--10---7-----7-|
B|------10----------7------|-----10-------------7-----|
G|---------7----------7----|--------7-------------7---|
D|-0-----------------------|--------------------------|
A|-------------------------|--------------------------|
E|-------------------------|--------------------------|

Part II:

  F#sus4/C#                 F#m/C#
e|----7-----7----7-----7---|------5-----5----5-----5--|
B|------7----------7-------|--------7----------7------|
G|--------6----------6-----|----------6----------6----|
D|-------------------------|--------------------------|
A|-4-----------------------|--4-----------------------|
E|-------------------------|--------------------------|

  Bm7                       A5
e|----5-----5----5-----5---|------5-----5----5-----5--|
B|------7----------7-------|--------5----------5------|
G|--------4----------4-----|----------2----------2----|
D|-------------------------|--------------------------|
A|-2-----------------------|--0-----------------------|
E|-------------------------|--------------------------|

Part III (Chorus):

E             G#/Eb    E      G#/Eb  Fm  C/E  Fm   

      Listen to me,       I can only say this once

C/E     E                   G#/Eb  E

Are you listening? See these empty eyes.

          G#/Eb  Fm  C/E Fm  

Know that it was all for you

Parts IV & V (Chorus cont.):

Part IV:

C/E      Bbm/F

But i'll see you again.

Dm     A5/C#   Asus4/C#   A/C#   

Down   by                 The Lake

Part V:

Bb/F                    

But I'll see you again

Fm       Bb/F

Yes I'll see you again

Fm     Bb/F

I will see you again


Dm     A5/C#   Asus4/C#   A/C#   

Down   by                 The Lake.

Chorus chord on piano played as the specific chords, known by name 
ie C/E = E G C E G C alternating between middle and 1st octave.

Hope this is right but you be the judge
Enjoy.
            
Submit corrections



        The Lake lessons Hard to play? Try these video lessons and learn fast The Lake lessons
        
↑ Back to top | Tablatures and chords for acoustic guitar and electric guitar, ukulele, drums are parodies/interpretations of the original songs. You may use it for private study, scholarship, research or language learning purposes only