» » »

Aoa - Moya Bass

Artists:  A B C D E F G H I J K L M N O P Q R S T U V W X Y Z # 

Moya Bass

(ver. 1) Click to play this song!
Aoa
 Rating:
2.4/5 (24 votes)

 Moya  lessons Tabs too difficult? Try these video lessons and learn fast
 
                00:08
G|--------------------------------------------------------------------------|
D|---------1/4443--4/1010109---3/6665---------------------------------------|
A|-2-4-----------4----------10-------6--------------------------------------|
E|------2-------------------------------------------------------------------|

00:16
                                           repeat 4x
G|------------------------------------------------------|
D|--4-4-43----------------------------------------------|
A|---------4-4-46---------------------------------------|
E|---------------4-4-467-7------------------------------|

00:46
                                       repeat 4x
G|------------------------------------------------------|
D|--4-4-443------6--------------------------------------|
A|---------4-3-8---4-6----------------------------------|
E|--------------------4-4-467-7-------------------------|

01:17
                                         repeat 2x
G|------------------------------------------------------|
D|--4-4-43----------------------------------------------|
A|---------4-4-46---------------------------------------|
E|---------------4-4-467-7------------------------------|

01:34
G|--------------------------------------------------------------------|
D|-----------------------------------------------54-------------------|
A|---4----4---6-5-4-8-6---4-6----6----------4-6-----------------------|
E|------2--------------------4-3------4-6-7---------------------------|

G|--------------------------------------------------------------------|
D|--------------------------------------------------------------------|
A|---4----4---6-5-4-8-6---4-6---6-------------------------------------|
E|------2--------------------4-3----4-6-7-----------------------------|

01:50
                                         repeat 4x
G|------------------------------------------------------|
D|--4-4-443------6--------------------------------------|
A|---------4-3-8---4-6----------------------------------|
E|--------------------4-4-467-7-------------------------|
02:21
G|--------------------------------------------------------------------------------|
D|-------------3-4-3---------------4-6--------------------------------------------|
A|-------654-46-----6------6-4~----------44--4-3--2~~10~--------------------------|
E|-4-4-4---------------1-4------------4-----4------------88888--------------------|

02:44

G|--------|    G|------------------------------------------------------|
G|--------|    D|--4-4-443------6--------------------------------------|
A|-46-----|     A|----------4-3-8---4-6-------4-6-8--------------------|
E|----4---|    E|-----------------------4-4----------------------------|

02:52
                                         repeat 4x
G|------------------------------------------------------|
D|--4-4-443------6--------------------------------------|
A|---------4-3-8---4-6----------------------------------|
E|--------------------4-4-467-7-------------------------|

03:23
G|--------------------------------------------------------------------------|
D|------1/4443---4/1010109---3/6665-----------------------------------------|
A|----4-------4-----------10-------6----4--6--8-----------------------------|
E|--------------------------------------------------------------------------|

G|--------------------------------------------------------------------------|
D|------1/4443--4/1010109---3/6665------------------------------------------|
A|----4-------4----------10-------6-----------------------------------------|
E|--------------------------------------------------------------------------|            
Submit corrections


        Moya  lessons Hard to play? Try these video lessons and learn fast Moya  lessons
        
↑ Back to top | Tablatures and chords for acoustic guitar and electric guitar, ukulele, drums are parodies/interpretations of the original songs. You may use it for private study, scholarship, research or language learning purposes only