» » »

Aoa - Miniskirt Bass

Artists:  A B C D E F G H I J K L M N O P Q R S T U V W X Y Z # 

Miniskirt Bass

(ver. 1) Click to play this song!
Aoa
 Rating:
4.5/5 (20 votes)

 Miniskirt  lessons Tabs too difficult? Try these video lessons and learn fast
 
                                                  REPEAT 5X
G|---------------------------------------|
D|---------------567--7--7-------7-------|
A|-5--5--57--7--7---------9--9--8-8------|
E|---------------------------------------|


G|-----------------------------------------|
D|---------------567--7--7-----------------|
A|-5--5--57--7--7--------------------------|
E|-----------------------------------------|


                                  REPEAT 7X
G|---------------------------------------|
D|---------------567--7--7-------7-------|
A|-5--5--57--7--7---------9--9--8-8------|
E|---------------------------------------|


G|-----------------------------------------|
D|---------------567--7--7-----------------|
A|-5--5--57--7--7--------------------------|
E|-----------------------------------------|


                                  REPEAT 4X
G|---------------------------------------|
D|---------------567--7--7-------7-------|
A|-5--5--57--7--7---------9--9--8-8------|
E|---------------------------------------|

02:25

G|---------------------------------------|
D|---------7~-9~-------------7-7--7~-----|
A|-5~-7~--------5-5--7-7-----------------|
E|---------------------------------------|

                                  REPEAT 2X
G|---------------------------------------|
D|---------------567--7--7-------7-------|
A|-5--5--57--7--7---------9--9--8-8------|
E|---------------------------------------|            
Submit corrections


        Miniskirt  lessons Hard to play? Try these video lessons and learn fast Miniskirt  lessons
        
↑ Back to top | Tablatures and chords for acoustic guitar and electric guitar, ukulele, drums are parodies/interpretations of the original songs. You may use it for private study, scholarship, research or language learning purposes only