» » »

Anya Marina - Miss Halfway Tabs

Artists:  A B C D E F G H I J K L M N O P Q R S T U V W X Y Z # 

Miss Halfway Tabs

(ver. 2) Click to play this song!
Anya Marina
 Rating:
4/5 (4 votes)

 Miss Halfway lessons Tabs too difficult? Try these video lessons and learn fast
 
                -------------------------------------------------------------------------------
                             MISS HALFWAY - Anya Maria
-------------------------------------------------------------------------------

Tuning: EADGBe

Was asked to learn this for  acoustic set im doing, but couldnt find it anywhere on the
and as i was working it out, thought i might as well submit the tab, and save anyone
the hassle.  I think the song was used in the the soundtrack for greys anatomy.  Pretty 
song, pretty sure it is 100% correct

The intro is just a combination of 3 chords:
       A             B              D                 A
e|---------------------2---------------5---------------------|
B|----2--2---------4-----4---------7-----7----------2---2----|
G|---2--2--2-----4---4-----------7---7------------2---2---2--|
D|-2-----------4---------------7----------------2------------|
A|-----------------------------------------------------------|
E|-----------------------------------------------------------|

It then kicks into the verse, which is strumming 4 chords (all barred), listen to the
to get the rhythm:

A      G       f#m      F


The chorus is the same as the intro, except the chords are strummed

A     B      D     A


The rest of the song is very easy to work out, being a combination of the intro chords
the verse chords, except for one break, where she throws in a barred    F#(9fret)   then
(7th fret)

Just listen to the song to work out where it comes in, its roughly about 2 minutes 25.

Hope you enjoy the song, its pretty easy to figure out if you just listen to the track

Cheers




| /  slide up
| \  slide down
| h  hammer-on
| p  pull-off
| ~  vibrato
| +  harmonic
| x  Mute note
===============================================================================
            
Submit corrections


        Miss Halfway lessons Hard to play? Try these video lessons and learn fast Miss Halfway lessons
        
↑ Back to top | Tablatures and chords for acoustic guitar and electric guitar, ukulele, drums are parodies/interpretations of the original songs. You may use it for private study, scholarship, research or language learning purposes only