Home » A » Antiskeptic »

Antiskeptic - Change My Ways Tabs

Artists:  A B C D E F G H I J K L M N O P Q R S T U V W X Y Z # 

Change My Ways Tabs

(ver. 1) Click to play this song!
Antiskeptic
Antiskeptic
Memoirs of a Common Man


Ok, another Antiskeptic song im very confidant with. i don't like to say
that it's 100% correct coz i think only Andrew Kitchen could say that, but
with my ears its pretty close. In order to fit it into the submission box
ive sacrificed a little bit of formatting and accuracy in terms of strumming.
of Called, by Antiskeptic. Coming soon should be Tears Simone and Reflections
Perceptions.

Drop D Tuning

h    -   Hammer On
/    -   Slide up
\    -   Slide down
x    -   Muffle/Dead string
*    -   Palm Mute
r    -   Let note/s ring

Intro
e-------------------------------------------------------------------
B-------------------------------------------------------------------
G------6-----------------6-----------------6------------------------
D--------7------6h7--------7------6----7-7---7--7-7--9-6--7-7--6----
A--7-7------7-7------7-7------7-7---7--5-5------5-5-------5-5----7--
D--7-7------7-7------7-7------7-7-----------------------------------
   * *      * *      * *      * *      * *      * *       * *

Verse
e---------------------------------------------------------------------------
B---------------------------------------------------------------------------
G-------6-----------------6------------------6-----------------6------------
D---------7------6h7--------7------6-----7-7---7--7-7-6h7--7-7---7--7-7-6h7-
A---7-7------7-7------7-7------7-7---7---5-5------5-5------5-5------5-5-----
D---7-7------7-7------7-7------7-7------------------------------------------
    * *      * *      * *      * *       * *      * *      * *      * *
You have come...

Prechorus
e----------------------------------------------------------
B----------------------------------------------------------
G------------------------6---------------------------------
D--------------------------7--0-0--9-6--0-0--4-6-6h7-6-----
A--4-4-4-4--5-5-555--0-0-------------------------------9---
D--4-4-4-4--5-5-555--0-0-----------------------------------
     Thought that I'd make it on my own

e----------------------------------------------------------
B----------------------------------------------------------
G------------------------6---------------------------------
D--------------------------7--0-0--9-6--0-0--7----0-0--6---
A--4-4-4-4--5-5-555--0-0-----------------------9-----------
D--4-4-4-4--5-5-555--0-0-----------------------------------
     Thought that I'd be fine here on my own

e--------------------------------------
B--------------------------------------
G-------6------------------------------
D---------7--0-0--9-6--0-0--4----6-----
A--0-0------------------------5----7---
D--0-0---------------------------------

e---------------------------------------------------------------------------
B------7/9--9-9-9------11-11-11-11-11-----13-13-13-13-13-------14-14-14-13--
G------x-x--x-x-x------x--x--x--x--x------x--x--x--x--x--------x--x--x--x---
D------5/7--7-7-7------9--9--9--9--9------11-11-11-11-11-------12-12-12-11--
A-0-0-------------0-0----------------0-0------------------0-0---------------
D-0-0-------------0-0----------------0-0------------------0-0---------------

e---------------------------------------------------------------------------
B----7/9--9-9-9-------11-11-11-11-11------13-13-13-13-13-------14-14-14-13--
G----x-x--x-x-x-------x--x--x--x--x-------x--x--x--x--x--------x--x--x--x---
D----5/7--7-7-7-------9--9--9--9--9-------11-11-11-11-11-------12-12-12-11--
A-0-0------------0--0---------------0--0----------------0--0----------------
D-0-0------------0--0---------------0--0----------------0--0----------------

Chorus
e-------------------------------------------------------------------x-----
B-------------------------------------------------------------------x-----
G------------------9\7-7-7-7--6--6-6--7-6---------------------------x-----
D-7-7-7-7-7-7-7----x-x-x-x-x--x--x-x--x-x--4-4-4-4--5-5-5-5--5-7-7--x-7---
A-7-7-7-7-7-7-7----7\5-5-5-5--4--4-4--5-4--4-4-4-4--5-5-5-5--5-7-7--x-7---
D-7-7-7-7-7-7-7----------------------------4-4-4-4--5-5-5-5--5-7-7--x-7---
Do you believe that I can change?
Do you believe I'll up and change my ways?

e----------------------------------------------------------------
B----------------------------------------------------------------
G-------------------9\7-7-7-7--6--6-6--7-6-----------------------
D-7-7-7-7-7-7-7-----x-x-x-x-x--x--x-x--x-x--4-4-4-4--5-5-5-5--2--
A-7-7-7-7-7-7-7---0-7\5-5-5-5--4--4-4--5-4--4-4-4-4--5-5-5-5--2--
D-7-7-7-7-7-7-7---0-------------------------4-4-4-4--5-5-5-5--2--
Do you believe then I'll have faith
That He will clean the slate and change my ways, right through

Break
e-------------------------------------------------------------------
B-------------------------------------------------------------------
G------6-----------------6-----------------6------------------------
D--------7------6h7--------7------6----7-7---7--7-7--9-6--7-7--6----
A--7-7------7-7------7-7------7-7---7--5-5------5-5-------5-5----7--
D--7-7------7-7------7-7------7-7-----------------------------------
   * *      * *      * *      * *      * *      * *       * *

Verse and Prechorus again, same as before

Chorus 
e------------------------------------------------------------------x-----
B------------------------------------------------------------------x-----
G-----------------9\7-7-7-7--6--6-6--7-6---------------------------x-----
D-7-7-7-7-7-7-7---x-x-x-x-x--x--x-x--x-x--4-4-4-4--5-5-5-5--5-7-7--x-7---
A-7-7-7-7-7-7-7---7\5-5-5-5--4--4-4--5-4--4-4-4-4--5-5-5-5--5-7-7--x-7---
D-7-7-7-7-7-7-7---------------------------4-4-4-4--5-5-5-5--5-7-7--x-7---

e-----------------------------------------------------------------------
B-----------------------------------------------------------------------
G---------7-7-7-----9\7-7-7-7--6--6-6--7-6------------------------------
D-7-7-7-7-7-7-7-----x-x-x-x-x--x--x-x--x-x--4-4-4-4--5-5-5-5------------
A-7-7-7-7-7-7-7---0-7\5-5-5-5--4--4-4--5-4--4-4-4-4--5-5-5-5--5-4-5-4---
D-7-7-7-7-7-7-7---0-------------------------4-4-4-4--5-5-5-5--5-4-5-4---

e----------------------------------------------
B----------------------------------------------
G----------------------------------------------
D-4--4--4-4---4--4-4-4---5--5--5-5-5-5-5---2---
A-4--4--4-4---4--4-4-4---5--5--5-5-5-5-5---2---
D-4--4--4-4---4--4-4-4---5--5--5-5-5-5-5---2---

Bridge
e--------------------------------------------------------------------------
B--------------------------------------------------------------------------
G------6-----------------7-6------4h6--------------------------------------
D--------7------6h7--7-7------7-7----------7-6------6h7------7-6------6h7--
A--7-7------7-7------5-5------5-5------4-4------4-4------0-0------0-0------
D--7-7------7-7------------------------4-4------4-4------0-0------0-0------
   * *      * *      * *      * *      * *      * *      * *      * *

e---------------------------------------------------------------------------
B---------------------------------------------------------------------------
G-----6-----------------7-6------4h6---------------------------------------
D-------7------6h7--7-7------7-7----------7-6------6-------12\11-11\9-9\7---
A-7-7------7-7------5-5------5-5------4-4------4-4----0-0--x--x-------------
D-7-7------7-7------------------------4-4------4-4----0-0--12\11-11\9-9\7---
   * *      * *      * *      * *      * *      * *       

e---------------------------------------------------------------------------
B---------------------------------------------------------------------------
G---------------------------------------------------------------------------
D-7---6---12---11---7---6---7---6----7---6---12---11---7---6----------------
A-x---x---x----x----x---x---x---x----x---x---x----x----x---x--0-0-0--0-0-0--
D-7---6---12---11---7---6---7---6----7---6---12---11---7---6--0-0-0--0-0-0--
                                                               * *    * *
Solo
{Strum like mad, almost tremelo}
e-----------------------------------------------------------------
B--10--9---15---14---10--9---10--12----10--9---15---14---10--17---
G--x---x---x----x----x---x---x---x-----x---x---x----x----x---x----
D--7---6---12---11---7---6---7---x-----7---6---12---11---7---14---
A--------------------------------11-------------------------------
D-----------------------------------------------------------------

e-----------------------------------------------------
B-----------------------------------------------------
G------7\6--6\4--4/6-------7\6--6\4--4/6-------7\6-9--
D------x-x--x-x--x-x-------x-x--x-x--x-x-------x-x-x--
A-0-0--5\4--4\2--2/4--0-0--5\4--4\2--2/4--0-0--5\4-7--
D-0-0-----------------0-0-----------------0-0---------

Chorus
e-----------------------------------------------------------------------x---
B-----------------------------------------------------------------------x---
G-----------------------9\7-7-7-7--6-6-6--7-6---------------------------x---
D-7-7-7-7-7-7-7-7-7--7--x-x-x-x-x--x-x-x--x-x--4-4-4-4--5-5-5-5--5-7-7--x-7-
A-7-7-7-7-7-7-7-7-7--7--7\5-5-5-5--4-4-4--5-4--4-4-4-4--5-5-5-5--5-7-7--x-7-
D-7-7-7-7-7-7-7-7-7--7-------------------------4-4-4-4--5-5-5-5--5-7-7--x-7-
    * * * * * * * *

e--------------------------------------------------------------x-----
B--------------------------------------------------------------x-----
G----------------9\7-7-7-7--6--6-6--7-9------------------------x-----
D-7-7-7-7-7-7-7--x-x-x-x-x--x--x-x--x-x--4-4-4-4--5-5-5-5--5-7-x-7---
A-7-7-7-7-7-7-7--7\5-5-5-5--4--4-4--5-7--4-4-4-4--5-5-5-5--5-7-x-7---
D-7-7-7-7-7-7-7--------------------------4-4-4-4--5-5-5-5--5-7-x-7---

e---------------------------------------------------------------------------
B---------------------------------------------------------------------------
G---------------9/11---11-11------14-14-14-14-13----------------------------
D---------------x-x----x--x-------x--x--x--x--x---4-4-4-4--5-5-5-5----------
A-7-7-7-7--0-0--7/9----9--9--0--0-12-12-12-12-11--4-4-4-4--5-5-5-5--5-4-5-4-
D-7-7-7-7--0-0---------------0--0-----------------4-4-4-4--5-5-5-5--5-4-5-4-

e--------------------------------------------------------
B--------------------------------------------------------
G--------------------------------------------------------
D-4--4--4-4---4--4-4-4---5--5--5-5-5-5-5---2r---7r---7---
A-4--4--4-4---4--4-4-4---5--5--5-5-5-5-5---2r---7r---7---
D-4--4--4-4---4--4-4-4---5--5--5-5-5-5-5---2r---7r---7---



Phew... well that was a decent few hours... time for some sleep. I'm begging
for comments, i really wanna know if this has been useful to anyone. Feel free
Caleb is Finkel.
            
Submit corrections

↑ Back to top | Tablatures and chords for acoustic guitar and electric guitar, ukulele, drums are parodies/interpretations of the original songs. You may use it for private study, scholarship, research or language learning purposes only