» » »

Antimatter - Weight Of The World Tabs

Artists:  A B C D E F G H I J K L M N O P Q R S T U V W X Y Z # 

Weight Of The World Tabs

(ver. 1) Click to play this song!
Antimatter
 Rating:
4.4/5 (5 votes)

 Weight Of The World lessons Tabs too difficult? Try these video lessons and learn fast
 
                [Intro]

e|-----------------------|-----------------------|
B|-----------------------|-----------------------|
G|--------0--------0-----|--------0--------0-----|
D|------4---4----4----4--|------4---4----4----4--| (x2)
A|----2--------3----3----|----2--------3----3----|
E|--0--------------------|--0--------------------|


Save me, I'm in a sea of beings
And there's no deny - the waves are holding me under
I'm drowning in a thousand faces

e|-----------------------|-----------------------|
B|-------0-------0-------|-------0-------0-------|
G|---------0--------0----|---------0--------0----| (x8)
D|-----4-------4------4--|-----4-------4------4--|
A|---2-------3----3------|---2-------3----3------|
E|-0---------------------|-0---------------------|

Alien expressions over and over again

e|---------------0--0----|------0----------------|-------0---------0-----|------0--0-----0--0----|
B|------0----------------|-----------------------|--------------------0--|------------0----------|
G|---------0-------------|---------0-------0-----|-----0---0-----0--0----|----0--0--0---0--0--0--|
D|---4----4---4----------|---4---4------------4--|---4----4----4---------|--4--------------------|
A|-----------------------|--------------3--------|-----------------------|-----------------------|
E|-0---0-----0--0--0-----|-0---0------0---0--0---|-0---------0-----------|-0---------------------|

e|------0------0---------|
B|--0-------0---0--------|
G|----0---0------0-------|
D|----------------2------|
A|-----------------3-----|
E|-0---------------------|



      C                    Em
I'm trying to scream, but I can't exhale

         C                          Em
The world seems to spin as I'm left on this square
 
C            Em        
With no will to hold on

C                                Em  
Am I the only one crushed by the weight of the world?



e|-----------------------|-----------------------|
B|-----------------------|-----------------------|
G|--------0--------0-----|--------0--------0-----|
D|------4---4----4----4--|------4---4----4----4--| (x2)
A|----2--------3----3----|----2--------3----3----|
E|--0--------------------|--0--------------------|

Save me...

*play it slower*

e|-----------------------|-----------------------|
B|-----------------------|-----------------------|
G|--------0--------0-----|--------0--------0-----|
D|------4---4----4----4--|------4---4----4----4--| (x2)
A|----2--------3----3----|----2--------3----3----|
E|--0--------------------|--0--------------------|


I think I've swallowed more than I can comprehend
A soul laid low

e|-----------------------|-----------------------|-----------------------|-----------------------|
B|----------0--------0---|-----------0--------0--|-------------0---------|-0-------------0-------|
G|-------0-----0---------|---0-----0----0--------|-----0-----0----0------|-------0-----0----0----|
D|----4------------4-----|-4-----4----------4----|---4-----4----------4--|-----4-----4-----------|
A|-2-------------2-----2-|-----3----------3------|-3-----5----------5----|---5-----0-------------|
E|-----------------------|-----------------------|-----------------------|-----------------------|

e|-----------------------|-----------------------|-----------------------|-----------------------|
B|-----0--------------0--|-------0------------0--|-----------0-----------|-0-----------0---------|
G|-----------0------0----|-0----------0-----0----|---0-----0---0-------0-|---0-------0----0--0---|
D|---4-----4------4------|-----4-----4----4------|-4-----4-------4---4---|-----4---4-----4-------|
A|-0-----0------3--------|---3-----3-------------|-----------------------|------------------2----|
E|-----------------------|--------------3--------|-----2-----------2-----|-------2---------------|

e|--0--------0--------0--|-----0-0-0--0------------|
B|-----0--------0--------|--0----------0-----------|
G|--------0--------0-----|--------------0----------|
D|-----------------------|---------------2---------|
A|-2--2--2--2--2--2--2---|-2--2-2-2-------3--------|
E|-----------------------|-----------------3-------|

   
[Chorus]

     [G6, Em] x4

   G6                     Em
A soul has lost its faith again

   Em                 G6
Wide awake in this hole

 G6                    Em 
A maggot on a plate again

Em                  G6
Wide awake in this hole

G6                    Em
A soul has lost its faith

G6                Em11
I've lost myself too long


[Outro]

    [G6,  Em11 ] x4

   G6                             Em11
Am I the only one crushed by the weight of the world?


e|-----------------------|-----------------------|
B|-----------------------|-----------------------|
G|--------0--------0-----|--------0--------0-----|
D|------4---4----4----4--|------4---4----4----4--| (x2)
A|----2--------3----3----|----2--------3----3----|
E|--0--------------------|--0--------------------|

            
Submit corrections


        Weight Of The World lessons Hard to play? Try these video lessons and learn fast Weight Of The World lessons
        
↑ Back to top | Tablatures and chords for acoustic guitar and electric guitar, ukulele, drums are parodies/interpretations of the original songs. You may use it for private study, scholarship, research or language learning purposes only