» » »

Antimatter - Relapes Tabs

Artists:  A B C D E F G H I J K L M N O P Q R S T U V W X Y Z # 

Relapes Tabs

(ver. 1) Click to play this song!
Antimatter
 Rating:
2.9/5 (27 votes)

 Relapes  lessons Tabs too difficult? Try these video lessons and learn fast
 
                Verse:

e|-------------5---------------5---------------5--------------5-|
B|--------------------------------------------------------------|
G|---------5---------------5---------------5--------------5-----|
D|-----2---------------2---------------2--------------2---------|
A|-0---------------0---------------0--------------0-------------|
E|--------------------------------------------------------------|

Repeat many times



Chorus:

e|--------------------------------------------------------------|
B|-------------1-----------3----------------0h1p0---------------|
G|-----2-----------------------0--------------------------------|
D|---------2-----------0----------------0-----------------------|
A|-0---------------2--------------------------------------------|
E|---------------------------------3----------------------------|

Repeat several times, end with:

e|---------------------------------0------0-0-----0-0-----------|
B|---------0h1p0-------------------0------0-0-----0-0-----------|
G|---------0-----------------------1------1-1-----1-1-----------|
D|-------2-------------------------2------2-2-----2-2-----------|
A|---------------------------------2------2-2-----2-2-----------|
E|-0-------------------------------0------0-0-----0-0-----------|


The entire song is a combination of these lines.            
Submit corrections


        Relapes  lessons Hard to play? Try these video lessons and learn fast Relapes  lessons
        
↑ Back to top | Tablatures and chords for acoustic guitar and electric guitar, ukulele, drums are parodies/interpretations of the original songs. You may use it for private study, scholarship, research or language learning purposes only