» » »

Anthrax - You Gotta Believe Tabs

Artists:  A B C D E F G H I J K L M N O P Q R S T U V W X Y Z # 

You Gotta Believe Tabs

(ver. 2) Click to play this song!
Anthrax
 Rating:
4.3/5 (15 votes)

 You Gotta Believe lessons Tabs too difficult? Try these video lessons and learn fast
 
                Intro]

( It has to be that way, otherwise i cannot submit this tab xd )

eb|------------------------------------|
Bb|------------------------------------|
Gb|------------------------------------|
Db|----7============---7============---|
Ab|----7============---8============---|
Eb|----5============---8============---|

   pm .   .   .   .    .   .   .   .
eb|-----------------------------------------|                 
Bb|-----------------------------------------|
Gb|-----------------------------------------|
Db|-----4---5---4---2----4---5---4---2------|
Ab|-----------------------------------------|
Eb|---2---2---2---2----2---2---2---2--------|

   pm .   .   .   .    .   .   .   .
eb|-----------------------------------------|
Bb|-----------------------------------------|
Gb|-----------------------------------------|
Db|----------------------4------------------|
Ab|-----4---5---4---2--------5---4---2------|
Eb|---2---2---2---2----2---2---2---2--------|


eb|-----------------------------|------------------------------|
Bb|-----------------------------|------------------------------|
Gb|-----------------------------|------------------------------|
Db|---7--7--7--7---7--7--7--7---|---10-10-10-10--10-10-10-10---|
Ab|---7--7--7--7---7--7--7--7---|---10-10-10-10--10-10-10-10---|  
Eb|---5--5--5--5---5--5--5--5---|---8--8--8--8---8--8--8--8----|

   pm .   .   .   .    .   .   .   .
eb|-----------------------------------------|                 
Bb|-----------------------------------------|
Gb|-----------------------------------------|
Db|-----4---5---4---2----4---5---4---2------|
Ab|-----------------------------------------|
Eb|---2---2---2---2----2---2---2---2--------|

   pm .   .   .   .    .   .   .   .
eb|-----------------------------------------|
Bb|-----------------------------------------|
Gb|-----------------------------------------|
Db|----------------------4------------------|
Ab|-----4---5---4---2--------5---4---2------|
Eb|---2---2---2---2----2---2---2---2--------|


eb|-----------------------------|------------------------------|
Bb|-----------------------------|------------------------------|
Gb|-----------------------------|------------------------------|
Db|---7--7--7--7---7--7--7--7---|---10-10-10-10--10-10-10-10---|
Ab|---7--7--7--7---7--7--7--7---|---10-10-10-10--10-10-10-10---|  
Eb|---5--5--5--5---5--5--5--5---|---8--8--8--8---8--8--8--8----|

   pm .   .   .   .    .   .   .   .
eb|-----------------------------------------|                 
Bb|-----------------------------------------|
Gb|-----------------------------------------|
Db|-----4---5---4---2----4---5---4---2------|
Ab|-----------------------------------------|
Eb|---2---2---2---2----2---2---2---2--------|

   pm .   .   .   .    .   .   .   .
eb|-----------------------------------------|
Bb|-----------------------------------------|
Gb|-----------------------------------------|
Db|----------------------4------------------|
Ab|-----4---5---4---2--------5---4---2------|
Eb|---2---2---2---2----2---2---2---2--------|


eb|-----------------------------|------------------------------|
Bb|-----------------------------|------------------------------|
Gb|-----------------------------|------------------------------|
Db|---7--7--7--7---7--7--7--7---|---11-11-11-11--11-11-11-11---|
Ab|---7--7--7--7---7--7--7--7---|---11-11-11-11--11-11-11-11---|  
Eb|---5--5--5--5---5--5--5--5---|---9--9--9--9---9--9--9--9----|

   pm .   .   .   .    .   .   .   .
eb|-----------------------------------------|                 
Bb|-----------------------------------------|
Gb|-----------------------------------------|
Db|-----4---5---4---2----4---5---4---2------|
Ab|-----------------------------------------|
Eb|---2---2---2---2----2---2---2---2--------|

   pm .   .   .   .    .   .   .   .
eb|-----------------------------------------|
Bb|-----------------------------------------|
Gb|-----------------------------------------|
Db|----------------------4------------------|
Ab|-----4---5---4---2--------5---4---2------|
Eb|---2---2---2---2----2---2---2---2--------|


eb|-----------------------------|------------------------------|
Bb|-----------------------------|------------------------------|
Gb|-----------------------------|------------------------------|
Db|---7--7--7--7---7--7--7--7---|---10-10-10-10--10-10-10-10---|
Ab|---7--7--7--7---7--7--7--7---|---10-10-10-10--10-10-10-10---|  
Eb|---5--5--5--5---5--5--5--5---|---8--8--8--8---8--8--8--8----|


[Verse 1] (0:31)
   pm . . .   . . .   . . .                . . .   . . .   . . .   . . . 
eb|------------------------------------|-----------------------------------|
Bb|------------------------------------|-----------------------------------|
Gb|------------------------------------|-----------------------------------|
Db|------------------------------------|-----------------------------------|
Ab|------------------------------------|-----------------------------------|
Eb|---2-2-2---2-2-2---2-2-2------------|---2-2-2---2-2-2---2-2-2---0-0-0---|

   pm . . .   . . .   . . .                . . .   . . .   . . .   . . . 
eb|------------------------------------|-----------------------------------|
Bb|------------------------------------|-----------------------------------|
Gb|------------------------------------|-----------------------------------|
Db|------------------------------------|-----------------------------------|
Ab|------------------------------------|-----------------------------------|
Eb|---2-2-2---2-2-2---2-2-2------------|---8-8-8---7-7-7---5-5-5---3-3-3---|

   pm . . .   . . .   . . .                . . .   . . .   . . .   . . . 
eb|------------------------------------|-----------------------------------|
Bb|------------------------------------|-----------------------------------|
Gb|------------------------------------|-----------------------------------|
Db|------------------------------------|-----------------------------------|
Ab|------------------------------------|-----------------------------------|
Eb|---2-2-2---2-2-2---2-2-2------------|---2-2-2---2-2-2---2-2-2---0-0-0---|

   pm . . .   . . .   . . .                . . .   . . .   . . .   . . . 
eb|------------------------------------|-----------------------------------|
Bb|------------------------------------|-----------------------------------|
Gb|------------------------------------|-----------------------------------|
Db|------------------------------------|-----------------------------------|
Ab|------------------------------------|-----------------------------------|
Eb|---2-2-2---2-2-2---2-2-2------------|---2-2-2---2-2-2---2-2-2---0-0-0---|

   pm . . .   . . .   . . .                . . .   . . .   . . .   . . . 
eb|------------------------------------|-----------------------------------|
Bb|------------------------------------|-----------------------------------|
Gb|------------------------------------|-----------------------------------|
Db|------------------------------------|-----------------------------------|
Ab|------------------------------------|-----------------------------------|
Eb|---2-2-2---2-2-2---2-2-2------------|---2-2-2---2-2-2---2-2-2---0-0-0---|

   pm . . .   . . .   . . .                . . .   . . .   . . .   . . . 
eb|------------------------------------|-----------------------------------|
Bb|------------------------------------|-----------------------------------|
Gb|------------------------------------|-----------------------------------|
Db|------------------------------------|-----------------------------------|
Ab|------------------------------------|-----------------------------------|
Eb|---2-2-2---2-2-2---2-2-2------------|---2-2-2---2-2-2---2-2-2---0-0-0---|


eb|-----------------------------|------------------------------|
Bb|-----------------------------|------------------------------|
Gb|-----------------------------|------------------------------|
Db|----------------2==========--|-------------3==========------|
Ab|-----5------3---0==========--|--5------3---1==========------|
Eb|-----3------1----------------|--3------1--------------------|

   pm . . .   . . .   . . .                . . .   . . .   . . .   . . . 
eb|------------------------------------|-----------------------------------|
Bb|------------------------------------|-----------------------------------|
Gb|------------------------------------|-----------------------------------|
Db|------------------------------------|-----------------------------------|
Ab|------------------------------------|-----------------------------------|
Eb|---2-2-2---2-2-2---2-2-2------------|---2-2-2---2-2-2---2-2-2---0-0-0---|

   pm . . .   . . .   . . .                . . .   . . .   . . .   . . . 
eb|------------------------------------|-----------------------------------|
Bb|------------------------------------|-----------------------------------|
Gb|------------------------------------|-----------------------------------|
Db|------------------------------------|-----------------------------------|
Ab|------------------------------------|-----------------------------------|
Eb|---2-2-2---2-2-2---2-2-2------------|---2-2-2---2-2-2---2-2-2---0-0-0---|


eb|-----------------------------|------------------------------|
Bb|-----------------------------|------------------------------|
Gb|-----------------------------|------------------------------|
Db|----------------2==========--|-------------3==========------|
Ab|-----5------3---0==========--|--5------3---1==========------|
Eb|-----3------1----------------|--3------1--------------------|


[Chorus]
   pm .   .   .   .    .   .   .   .
eb|-----------------------------------------|                 
Bb|-----------------------------------------|
Gb|-----------------------------------------|
Db|-----4---5---4---2----4---5---4---2------|
Ab|-----------------------------------------|
Eb|---2---2---2---2----2---2---2---2--------|

   pm .   .   .   .    .   .   .   .
eb|-----------------------------------------|
Bb|-----------------------------------------|
Gb|-----------------------------------------|
Db|----------------------4------------------|
Ab|-----4---5---4---2--------5---4---2------|
Eb|---2---2---2---2----2---2---2---2--------|


eb|-----------------------------|------------------------------|
Bb|-----------------------------|------------------------------|
Gb|-----------------------------|------------------------------|
Db|---7--7--7--7---7--7--7--7---|---10-10-10-10--10-10-10-10---|
Ab|---7--7--7--7---7--7--7--7---|---10-10-10-10--10-10-10-10---|  
Eb|---5--5--5--5---5--5--5--5---|---8--8--8--8---8--8--8--8----|

   pm .   .   .   .    .   .   .   .
eb|-----------------------------------------|                 
Bb|-----------------------------------------|
Gb|-----------------------------------------|
Db|-----4---5---4---2----4---5---4---2------|
Ab|-----------------------------------------|
Eb|---2---2---2---2----2---2---2---2--------|

   pm .   .   .   .    .   .   .   .
eb|-----------------------------------------|
Bb|-----------------------------------------|
Gb|-----------------------------------------|
Db|----------------------4------------------|
Ab|-----4---5---4---2--------5---4---2------|
Eb|---2---2---2---2----2---2---2---2--------|


eb|-----------------------------|------------------------------|
Bb|-----------------------------|------------------------------|
Gb|-----------------------------|------------------------------|
Db|---7--7--7--7---7--7--7--7---|---10-10-10-10--10-10-10-10---|
Ab|---7--7--7--7---7--7--7--7---|---10-10-10-10--10-10-10-10---|  
Eb|---5--5--5--5---5--5--5--5---|---8--8--8--8---8--8--8--8----|


[Verse 2] (1.10)
   pm . . .   . . .   . . .                . . .   . . .   . . .   . . . 
eb|------------------------------------|-----------------------------------|
Bb|------------------------------------|-----------------------------------|
Gb|------------------------------------|-----------------------------------|
Db|------------------------------------|-----------------------------------|
Ab|------------------------------------|-----------------------------------|
Eb|---2-2-2---2-2-2---2-2-2------------|---2-2-2---2-2-2---2-2-2---0-0-0---|

   pm . . .   . . .   . . .                . . .   . . .   . . .   . . . 
eb|------------------------------------|-----------------------------------|
Bb|------------------------------------|-----------------------------------|
Gb|------------------------------------|-----------------------------------|
Db|------------------------------------|-----------------------------------|
Ab|------------------------------------|-----------------------------------|
Eb|---2-2-2---2-2-2---2-2-2------------|---8-8-8---7-7-7---5-5-5---3-3-3---|

   pm . . .   . . .   . . .                . . .   . . .   . . .   . . . 
eb|------------------------------------|-----------------------------------|
Bb|------------------------------------|-----------------------------------|
Gb|------------------------------------|-----------------------------------|
Db|------------------------------------|-----------------------------------|
Ab|------------------------------------|-----------------------------------|
Eb|---2-2-2---2-2-2---2-2-2------------|---2-2-2---2-2-2---2-2-2---0-0-0---|

   pm . . .   . . .   . . .                . . .   . . .   . . .   . . . 
eb|------------------------------------|-----------------------------------|
Bb|------------------------------------|-----------------------------------|
Gb|------------------------------------|-----------------------------------|
Db|------------------------------------|-----------------------------------|
Ab|------------------------------------|-----------------------------------|
Eb|---2-2-2---2-2-2---2-2-2------------|---2-2-2---2-2-2---2-2-2---0-0-0---|

   pm . . .   . . .   . . .                . . .   . . .   . . .   . . . 
eb|------------------------------------|-----------------------------------|
Bb|------------------------------------|-----------------------------------|
Gb|------------------------------------|-----------------------------------|
Db|------------------------------------|-----------------------------------|
Ab|------------------------------------|-----------------------------------|
Eb|---2-2-2---2-2-2---2-2-2------------|---2-2-2---2-2-2---2-2-2---0-0-0---|

   pm . . .   . . .   . . .                . . .   . . .   . . .   . . . 
eb|------------------------------------|-----------------------------------|
Bb|------------------------------------|-----------------------------------|
Gb|------------------------------------|-----------------------------------|
Db|------------------------------------|-----------------------------------|
Ab|------------------------------------|-----------------------------------|
Eb|---2-2-2---2-2-2---2-2-2------------|---2-2-2---2-2-2---2-2-2---0-0-0---|


eb|-----------------------------|------------------------------|
Bb|-----------------------------|------------------------------|
Gb|-----------------------------|------------------------------|
Db|----------------2==========--|-------------3==========------|
Ab|-----5------3---0==========--|--5------3---1==========------|
Eb|-----3------1----------------|--3------1--------------------|

   pm . . .   . . .   . . .                . . .   . . .   . . .   . . . 
eb|------------------------------------|-----------------------------------|
Bb|------------------------------------|-----------------------------------|
Gb|------------------------------------|-----------------------------------|
Db|------------------------------------|-----------------------------------|
Ab|------------------------------------|-----------------------------------|
Eb|---2-2-2---2-2-2---2-2-2------------|---2-2-2---2-2-2---2-2-2---0-0-0---|

   pm . . .   . . .   . . .                . . .   . . .   . . .   . . . 
eb|------------------------------------|-----------------------------------|
Bb|------------------------------------|-----------------------------------|
Gb|------------------------------------|-----------------------------------|
Db|------------------------------------|-----------------------------------|
Ab|------------------------------------|-----------------------------------|
Eb|---2-2-2---2-2-2---2-2-2------------|---2-2-2---2-2-2---2-2-2---0-0-0---|


eb|-----------------------------|------------------------------|
Bb|-----------------------------|------------------------------|
Gb|-----------------------------|------------------------------|
Db|----------------2==========--|-------------3==========------|
Ab|-----5------3---0==========--|--5------3---1==========------|
Eb|-----3------1----------------|--3------1--------------------|


[Chorus]
   pm .   .   .   .    .   .   .   .
eb|-----------------------------------------|                 
Bb|-----------------------------------------|
Gb|-----------------------------------------|
Db|-----4---5---4---2----4---5---4---2------|
Ab|-----------------------------------------|
Eb|---2---2---2---2----2---2---2---2--------|

   pm .   .   .   .    .   .   .   .
eb|-----------------------------------------|
Bb|-----------------------------------------|
Gb|-----------------------------------------|
Db|----------------------4------------------|
Ab|-----4---5---4---2--------5---4---2------|
Eb|---2---2---2---2----2---2---2---2--------|


eb|-----------------------------|------------------------------|
Bb|-----------------------------|------------------------------|
Gb|-----------------------------|------------------------------|
Db|---7--7--7--7---7--7--7--7---|---10-10-10-10--10-10-10-10---|
Ab|---7--7--7--7---7--7--7--7---|---10-10-10-10--10-10-10-10---|  
Eb|---5--5--5--5---5--5--5--5---|---8--8--8--8---8--8--8--8----|

   pm .   .   .   .    .   .   .   .
eb|-----------------------------------------|                 
Bb|-----------------------------------------|
Gb|-----------------------------------------|
Db|-----4---5---4---2----4---5---4---2------|
Ab|-----------------------------------------|
Eb|---2---2---2---2----2---2---2---2--------|
   pm .   .   .   .    .   .   .   .

eb|-----------------------------------------|
Bb|-----------------------------------------|
Gb|-----------------------------------------|
Db|----------------------4------------------|
Ab|-----4---5---4---2--------5---4---2------|
Eb|---2---2---2---2----2---2---2---2--------|


eb|-----------------------------|------------------------------|
Bb|-----------------------------|------------------------------|
Gb|-----------------------------|------------------------------|
Db|---7--7--7--7---7--7--7--7---|---10-10-10-10--10-10-10-10---|
Ab|---7--7--7--7---7--7--7--7---|---10-10-10-10--10-10-10-10---|  
Eb|---5--5--5--5---5--5--5--5---|---8--8--8--8---8--8--8--8----|

   pm .   .   .   .    .   .   .   .
eb|-----------------------------------------|                 
Bb|-----------------------------------------|
Gb|-----------------------------------------|
Db|-----4---5---4---2----4---5---4---2------|
Ab|-----------------------------------------|
Eb|---2---2---2---2----2---2---2---2--------|

   pm .   .   .   .    .   .   .   .
eb|-----------------------------------------|
Bb|-----------------------------------------|
Gb|-----------------------------------------|
Db|----------------------4------------------|
Ab|-----4---5---4---2--------5---4---2------|
Eb|---2---2---2---2----2---2---2---2--------|


eb|-----------------------------|------------------------------|
Bb|-----------------------------|------------------------------|
Gb|-----------------------------|------------------------------|
Db|---7--7--7--7---7--7--7--7---|---11-11-11-11--11-11-11-11---|
Ab|---7--7--7--7---7--7--7--7---|---11-11-11-11--11-11-11-11---|  
Eb|---5--5--5--5---5--5--5--5---|---9--9--9--9---9--9--9--9----|

   pm .   .   .   .    .   .   .   .
eb|-----------------------------------------|                 
Bb|-----------------------------------------|
Gb|-----------------------------------------|
Db|-----4---5---4---2----4---5---4---2------|
Ab|-----------------------------------------|
Eb|---2---2---2---2----2---2---2---2--------|

   pm .   .   .   .    .   .   .   .
eb|-----------------------------------------|
Bb|-----------------------------------------|
Gb|-----------------------------------------|
Db|----------------------4------------------|
Ab|-----4---5---4---2--------5---4---2------|
Eb|---2---2---2---2----2---2---2---2--------|


[Bridge](2:02
eb|-----------------------------|------------------------------|
Bb|-----------------------------|------------------------------|
Gb|-----------------------------|------------------------------|
Db|---7--7--7--7---7--7--7--7---|---10-10-10-10--10-10-10-10---|
Ab|---7--7--7--7---7--7--7--7---|---10-10-10-10--10-10-10-10---|  
Eb|---5--5--5--5---5--5--5--5---|---8--8--8--8---8--8--8--8----|


eb|---------------------------------------------|
Bb|---------------------------------------------|
Gb|----11\12--11---11\12--11------11\12--10==---|
Db|-----x-x---x-----x-x---x--------x-x---x------|
Ab|-----9\10--9-----9\10--9--------9\10--8===---|
Eb|---------------------------------------------|


eb|---------------------------------------------|
Bb|---------------------------------------------|
Gb|----11\12--11---11\12--11------11\12--10==---|
Db|-----x-x---x-----x-x---x--------x-x---x------|
Ab|-----9\10--9-----9\10--9--------9\10--8===---|
Eb|---------------------------------------------|


eb|---------------------------------------------|
Bb|---------------------------------------------|
Gb|----11\12--11----11\12--11------11\12--10==--|
Db|-----x-x---x------x-x---x--------x-x---x-----|
Ab|-----9\10--9------9\10--9--------9\10--8===--|
Eb|---------------------------------------------|


eb|---------------------------------------------|
Bb|---------------------------------------------|
Gb|----11\12--11---11\12--11--------------------|
Db|-----x-x---x-----x-x---x---------------------|
Ab|-----9\10--9-----9\10--9---------------------|
Eb|-------------------------------7\15/3--------|


eb|-----------------------------|------------------------------|
Bb|-----------------------------|------------------------------|
Gb|-----------------------------|------------------------------|
Db|-----------------------------|--------------------------3---|
Ab|--4\5-4----4\5-4----4\5-2===-|---4\5-4----4\5-4----4\5--3---|
Eb|--2\3-2----2\3-2----2\3-0===-|---2\3-2----2\3-2----2\3------|

                                                pm . . . .  . . . . 
eb|-----------------------------|----------------|-------------------|
Bb|-----------------------------|----------------|-------------------|
Gb|-----------------------------|----------------|-------------------|
Db|-----------------------------|----------------|-------------------|
Ab|--4\5-4----4\5-4----4\5-2===-|---4\5-4----4\5-|-------------------|
Eb|--2\3-2----2\3-2----2\3-0===-|---2\3-2----2\3-|-0-0-0-0--0-0-0-0--|


[Solo 1] (2:21)

eb|----------14-------14-15p14----15p14----15p14-15h18-----|
Bb|-----7\12----15p12----------12-------12-----------------|
Gb|--------------------------------------------------------|
Db|--------------------------------------------------------| x2
Ab|--------------------------------------------------------|
Eb|--------------------------------------------------------|


eb|--------14-------14-15p14----15p14----15p14-15h18----------------------|
Bb|---7\12----15p12----------12-------12--------------17b19rb17--17~~~~---|
Gb|-----------------------------------------------------------------------|(it's the same, 
Db|-----------------------------------------------------------------------| but with bend)
Ab|-----------------------------------------------------------------------|
Eb|-----------------------------------------------------------------------|


eb|---------------------------------------------|
Bb|---------------------------------------------|
Gb|---------------------------------------------|
Db|----11\12--11---11\12--11------11\12--10==---|
Ab|-----9\10--9-----9\10--9--------9\10--8===---|
Eb|---------------------------------------------|


eb|---------------------------------------------|
Bb|---------------------------------------------|
Gb|---------------------------------------------|
Db|----11\12--11---11\12--11------11\12--10==---|
Ab|-----9\10--9-----9\10--9--------9\10--8===---|
Eb|---------------------------------------------|


eb|---------------------------------------------|
Bb|---------------------------------------------|
Gb|---------------------------------------------|
Db|----11\12--11---11\12--11------11\12--10==---|
Ab|-----9\10--9-----9\10--9--------9\10--8===---|
Eb|---------------------------------------------|


eb|---------------------------------------------|
Bb|---------------------------------------------|
Gb|---------------------------------------------|
Db|----11\12--11---11\12--11------11\12--10==---|
Ab|-----9\10--9-----9\10--9--------9\10--8===---|
Eb|---------------------------------------------|


[Solo 2]

eb|--14-15-14-12-14----14-15-14-12-14-------14-15-14-12-12---------|
Bb|----------------------------------------------------------------|
Gb|----------------------------------------------------------------|x3
Db|----------------------------------------------------------------|
Ab|----------------------------------------------------------------|
Eb|----------------------------------------------------------------|


eb|--14-15-14-12-14----14-15-14-12-14b15---|
Bb|----------------------------------------|
Gb|----------------------------------------| (catch epic feetback)
Db|----------------------------------------|
Ab|----------------------------------------|
Eb|----------------------------------------|


[Solo 3] (3:10) Use wah pedal

eb|-------------------------------------------|
Bb|-------------------------------------------|
Gb|--11b12r11-9--------------------11b12rb11--|
Db|-------------12-11-9-8\7-11h12-------------|
Ab|-------------------------------------------|
Eb|-------------------------------------------|


eb|--14b15rb14-12----------------------14b15r14--|
Bb|---------------15-14-12-11\12-14h15-----------|
Gb|----------------------------------------------|
Db|----------------------------------------------|
Ab|----------------------------------------------|
Eb|----------------------------------------------|


eb|----------------------------------12---12------|
Bb|-------------12---12---------------------------|
Gb|--5/9~~~~~~-----9-------9------------9---------|
Db|-----------------------------------------------|
Ab|-----------------------------------------------|
Eb|-----------------------------------------------|


eb|---------------------------------------------------------------------|
Bb|---------------------------------------------------------------------|
Gb|--------------------------------------11h12h14----------11h12h14p12--|
Db|-----------11h12h14----------11h12h14----------11h12h14--------------|
Ab|--10h12h14----------10h12h14-----------------------------------------|
Eb|---------------------------------------------------------------------|


eb|--------------------------------|
Bb|-14/19-17-15-17-17-17-19b20-19--|
Gb|--------------------------------|
Db|--------------------------------|
Ab|--------------------------------|
Eb|--------------------------------|

   ph                   +               +
eb|----------------------------------------------|
Bb|--14b15-15-15r14-12-14~~~~~~------------------|
Gb|------------------------------14b16-16r14-14--|
Db|----------------------------------------------|
Ab|----------------------------------------------|
Eb|----------------------------------------------|


eb|-------12----------------12-----------------------------------------|
Bb|--15b17---15-12-15b17-------15-12---12------------------------------|
Gb|----------------------------------15---15-14-12---14-12-------------|
Db|------------------------------------------------14------14-12-14~~--|
Ab|--------------------------------------------------------------------|
Eb|--------------------------------------------------------------------|


eb|----------------------------------------------|
Bb|--------------------12h14h15p14p12------------|
Gb|-----------11h12h14-----------------14p12p11--|
Db|--11h12h14------------------------------------|
Ab|----------------------------------------------|
Eb|----------------------------------------------|


eb|----------------------------------------------|
Bb|--------------------12h14h15p14p12------------|
Gb|-----------11h12h14-----------------14p12p11--|
Db|--11h12p14------------------------------------|
Ab|----------------------------------------------|
Eb|----------------------------------------------|


eb|--------------------12h14h15p14p12h15p14p12h15p14p12-15b17rb15-15-14--|
Bb|-----------12h14h15---------------------------------------------------|
Gb|--11h12h14------------------------------------------------------------|
Db|----------------------------------------------------------------------|
Ab|----------------------------------------------------------------------|
Eb|----------------------------------------------------------------------|


eb|-------------------------------------------|
Bb|--------------------------------11b12rb11--|
Gb|--11b12rb11-9-------------11h12------------|
Db|-------------12-11-9-8\7-------------------|
Ab|-------------------------------------------|
Eb|-------------------------------------------|


eb|-14b15rb14-12----------17-15-14-15-14--15-14-12-14-12----------------------------|
Bb|--------------15-14-12--------------------------------17-15-14-15-14-------------|
Gb|---------------------------------------------------------------------12/15-14-15-|
Db|---------------------------------------------------------------------------------|
Ab|---------------------------------------------------------------------------------|
Eb|---------------------------------------------------------------------------------|


eb|----------------------------------12---12------|
Bb|-------------12---12---------------------------|
Gb|--5/9~~~~~~-----9-------9------------9---------|
Db|-----------------------------------------------|
Ab|-----------------------------------------------|
Eb|-----------------------------------------------|


eb|---17-15-14-15-14--15-14-12-15-14---|
Bb|------------------------------------|
Gb|------------------------------------| x3
Db|------------------------------------|
Ab|------------------------------------|
Eb|------------------------------------|


eb|---17-15-14-15-14--15-14-12-15-14--------------|
Bb|----------------------------------17b19~~~~~~--|
Gb|-----------------------------------------------|
Db|-----------------------------------------------|
Ab|-----------------------------------------------|
Eb|-----------------------------------------------|

[Bridge]
eb|-----------------------------------------|
Bb|-----------------------------------------|
Gb|-----------------------------------------|
Db|--------------2-----2--2-----2----2---2--|
Ab|--4-3-2-3---2-----2--------2----2--------|
Eb|----------0-----0----0---0----0-----0----|


eb|-----------------------------------|
Bb|-----------------------------------|
Gb|-----------------------------------|
Db|------2-----2---2-----2------------|
Ab|----2-----2---------2-----4-3-2-3--|
Eb|--3-----3-----3---3-----3----------|


eb|------------------------------------------------------------|
Bb|------------------------------------------------------------|
Gb|------------------------------------------------------------|
Db|------2-----2---2-----2-----2---2------2-----2---2-----2----|
Ab|----4-----4---------4-----4----------4-----4---------4------|
Eb|--2-----2-----2---2-----2-----2----2-----2-----2---2-----2--|


eb|-----------------------------------------|
Bb|-----------------------------------------|
Gb|-----------------------------------------|
Db|--------------2-----2--2-----2----2---2--|
Ab|--4-3-2-3---2-----2--------2----2--------|
Eb|----------0-----0----0---0----0-----0----|


eb|-----------------------------------|
Bb|-----------------------------------|
Gb|-----------------------------------|
Db|------2-----2---2-----2------------|
Ab|----2-----2---------2-----4-3-2-3--|
Eb|--3-----3-----3---3-----3----------|


eb|------------------------------------------------------------|
Bb|------------------------------------------------------------|
Gb|------------------------------------------------------------|
Db|------2-----2---2-----2-----2---2------2-----2---2-----2----|
Ab|----4-----4---------4-----4----------4-----4---------4------|
Eb|--2-----2-----2---2-----2-----2----2-----2-----2---2-----2--|


eb|-----------------------------------------|
Bb|-----------------------------------------|
Gb|-----------------------------------------|
Db|--------------2-----2--2-----2----2---2--|
Ab|--4-3-2-3---2-----2--------2----2--------|
Eb|----------0-----0----0---0----0-----0----|


eb|-----------------------------------|
Bb|-----------------------------------|
Gb|-----------------------------------|
Db|------2-----2---2-----2------------|
Ab|----2-----2---------2-----4-3-2-3--|
Eb|--3-----3-----3---3-----3----------|

(4:47)
  pm . . . .  . . . .  . . . .  . . . .  . . . .  . . . .
eb|--------------------------------------------------------|
Bb|--------------------------------------------------------|
Gb|--------------------------------------------------------|
Db|--------------------------------------------------------|
Ab|--4-4-4-4--4-4-4-4--4-4-4-4--4-4-4-4--4-4-4-4--4-4-4-4--|
Eb|--2-2-2-2--2-2-2-2--2-2-2-2--2-2-2-2--2-2-2-2--2-2-2-2--|


eb|-----------------------------------|
Bb|-----------------------------------|
Gb|-----------------------------------|
Db|--------------------2====---5====--| Don't palm mute
Ab|--4-4-4-4--4-4-4-4--2====---5====--|
Eb|--2-2-2-2--2-2-2-2--0====---3====--|


[solo 4] (4:57)
eb|--17-19-21-19-17-19-21b22r21-21---17-19-21-19-17-19-21b22r21-21--|
Bb|-----------------------------------------------------------------|
Gb|-----------------------------------------------------------------|
Db|-----------------------------------------------------------------|
Ab|-----------------------------------------------------------------|
Eb|-----------------------------------------------------------------|


eb|--21p20-20---20\11--------------------------------------|
Bb|---------------------7-7-------------7-7-7--------------|
Gb|-------------------------10-8-7-8-10-------10-8-7-8-10--|
Db|--------------------------------------------------------|
Ab|--------------------------------------------------------|
Eb|--------------------------------------------------------|


eb|--7-7-7-------------7-7-7-------------7-7-7--------------|
Bb|--------10-8-7-8-10-------10-8-7-8-10-------10-8-7-8-10--|
Gb|---------------------------------------------------------|
Db|---------------------------------------------------------|
Ab|---------------------------------------------------------|
Eb|---------------------------------------------------------|


eb|--7-7-7-------------7-7-7-------------7-7-7--------------|
Bb|--------10-8-7-8-10-------10-8-7-8-10-------10-8-7-8-10--|
Gb|---------------------------------------------------------|
Db|---------------------------------------------------------|
Ab|---------------------------------------------------------|
Eb|---------------------------------------------------------|


eb|---------------------14---15p14---14b15-14------14---15p14---14b15-14--|
Bb|--10-10/13-13---7/12---12------12----------7/12---12------12-----------|
Gb|-----------------------------------------------------------------------|
Db|-----------------------------------------------------------------------|
Ab|-----------------------------------------------------------------------|
Eb|-----------------------------------------------------------------------|

  ph                                   +        +         +         + 
  pm                               . .    . . .       .       . . .  
eb|--12-15-15b17--10-9-9-10\12~~~-----------------------------------------|
Bb|------------------------------------3~-------3~~~--7p5-6~--7-6-5-6~~~--|
Gb|--------------------------------5-3----5-4-3---------------------------|
Db|-----------------------------------------------------------------------|
Ab|-----------------------------------------------------------------------|
Eb|-----------------------------------------------------------------------|


eb|--5-7-9--7-9-10--9-10-12--10-12-14--12-14-15--|
Bb|----------------------------------------------|
Gb|----------------------------------------------|
Db|----------------------------------------------|
Ab|----------------------------------------------|
Eb|----------------------------------------------|


eb|--14-15-17--15-17-19--15-17-19-19b21rb19-19b21~~~~--|
Bb|----------------------------------------------------|
Gb|----------------------------------------------------|
Db|----------------------------------------------------|
Ab|----------------------------------------------------|
Eb|----------------------------------------------------|

[outro]
eb|-----------------------------|------------------------------|
Bb|-----------------------------|------------------------------|
Gb|-----------------------------|------------------------------|
Db|---7--7--7--7---7--7--7--7---|---10-10-10-10--10-10-10-10---|
Ab|---7--7--7--7---7--7--7--7---|---10-10-10-10--10-10-10-10---|  
Eb|---5--5--5--5---5--5--5--5---|---8--8--8--8---8--8--8--8----|

   pm .   .   .   .    .   .   .   .
eb|-----------------------------------------|                 
Bb|-----------------------------------------|
Gb|-----------------------------------------|
Db|-----4---5---4---2----4---5---4---2------|
Ab|-----------------------------------------|
Eb|---2---2---2---2----2---2---2---2--------|

   pm .   .   .   .    .   .   .   .
eb|-----------------------------------------|
Bb|-----------------------------------------|
Gb|-----------------------------------------|
Db|----------------------4------------------|
Ab|-----4---5---4---2--------5---4---2------|
Eb|---2---2---2---2----2---2---2---2--------|


eb|-----------------------------|------------------------------|
Bb|-----------------------------|------------------------------|
Gb|-----------------------------|------------------------------|
Db|---7--7--7--7---7--7--7--7---|---10-10-10-10--10-10-10-10---|
Ab|---7--7--7--7---7--7--7--7---|---10-10-10-10--10-10-10-10---|  
Eb|---5--5--5--5---5--5--5--5---|---8--8--8--8---8--8--8--8----|

   pm .   .   .   .    .   .   .   .
eb|-----------------------------------------|                 
Bb|-----------------------------------------|
Gb|-----------------------------------------|
Db|-----4---5---4---2----4---5---4---2------|
Ab|-----------------------------------------|
Eb|---2---2---2---2----2---2---2---2--------|

   pm .   .   .   .    .   .   .   .
eb|-----------------------------------------|
Bb|-----------------------------------------|
Gb|-----------------------------------------|
Db|----------------------4------------------|
Ab|-----4---5---4---2--------5---4---2------|
Eb|---2---2---2---2----2---2---2---2--------|


eb|-----------------------------|------------------------------|
Bb|-----------------------------|------------------------------|
Gb|-----------------------------|------------------------------|
Db|---7--7--7--7---7--7--7--7---|---10-10-10-10--10-10-10-10---|
Ab|---7--7--7--7---7--7--7--7---|---10-10-10-10--10-10-10-10---|  
Eb|---5--5--5--5---5--5--5--5---|---8--8--8--8---8--8--8--8----|


eb|-----------------------------|------------------------------|
Bb|-----------------------------|------------------------------|
Gb|-----------------------------|------------------------------|
Db|---8--8--8--8---8--8--8--8---|---11-11-11-11--11-11-11-11---|
Ab|---8--8--8--8---8--8--8--8---|---11-11-11-11--11-11-11-11---|  
Eb|---6--6--6--6---6--6--6--6---|---9--9--9--9---9--9--9--9----|


eb|------------------------------------|----------------------------------|
Bb|------------------------------------|----------------------------------|
Gb|------------------------------------|----------------------------------|
Db|------------------------------------|----------------------------------|
Ab|---14--14--14--14---14--14--14--14--|--17--17--17--17--17--17--17--17--|  
Eb|---12--12--12--12---12--12--12--12--|--15--15--15--15--15--15--15--15--|            
Submit corrections


        You Gotta Believe lessons Hard to play? Try these video lessons and learn fast You Gotta Believe lessons
        
↑ Back to top | Tablatures and chords for acoustic guitar and electric guitar, ukulele, drums are parodies/interpretations of the original songs. You may use it for private study, scholarship, research or language learning purposes only