» » »

Anthony Green - Youre So Dead Meat Tabs

Artists:  A B C D E F G H I J K L M N O P Q R S T U V W X Y Z # 

Youre So Dead Meat Tabs

(ver. 1) Click to play this song!
Anthony Green
 Rating:
4.3/5 (16 votes)

 Youre So Dead Meat lessons Tabs too difficult? Try these video lessons and learn fast
 
                [Intro/Verse]
e|--1--------0------6----------------------------1------------0---------------6-------|
B|--3--------1------6---------------5---6---8----3------------1---------------6-------|
G|--2--------2------7---------------5---5---5----2------------2---------------7-------|
D|------------------------------------------------------------------------------------|
A|------------------------------------------------------------------------------------|
E|------------------------------------------------------------------------------------|
   Bustin a pose, shrug it off the same as when you say something you don't mean.
   These strings are so dead, holding off on changing them, until one day they will just break
   Sorrow and all

   Faces of doubt, haunted by the memories of everything minus the bad stuff
   Sparkling light, God takes her vengeance on everyone’s burned to the ground
   Sorrow and all

[Chorus]
e|--5--------------------3---------0------------------6--------------------------|
B|--5--------------------3---------1------------------6--------------------------|
G|--6--------------------3---------0------------------7--------------------------|
D|--7--------------------0---------2------------------8--------------------------|
A|-------------------------------------------------------------------------------|
E|-------------------------------------------------------------------------------|
   Don’t tell me if you care, come alive with it, let it show
   And don’t wistfully believe I would die for it

[Verse 2]
   Holding a pose, why should I put everything into all these songs you just steal
   The act in itself, fills me up in ways that connects me with everyone else

[Chorus/Outro]
e|--5--------------------3---------0------------------6--------------------------|
B|--5--------------------3---------1------------------6--------------------------|
G|--6--------------------3---------0------------------7--------------------------|
D|--7--------------------0---------2------------------8--------------------------|
A|-------------------------------------------------------------------------------|
E|-------------------------------------------------------------------------------|
   Don’t tell me if you care, come alive with it, let it show
   Don’t wistfully believe I would die for this, what does that make me

[Outro]
e|--0--------------6-----------------1-----0-----6-------------------------------|
B|--1--------------6-----------------3-----1-----6----5--6--8--------------------|
G|--0--------------7-----------------2-----2-----7----5--5--5--------------------|
D|--2--------------8-------------------------------------------------------------|
A|-------------------------------------------------------------------------------|
E|-------------------------------------------------------------------------------|
   What does that make me
   What does that make me
            
Submit corrections


        Youre So Dead Meat lessons Hard to play? Try these video lessons and learn fast Youre So Dead Meat lessons
        
↑ Back to top | Tablatures and chords for acoustic guitar and electric guitar, ukulele, drums are parodies/interpretations of the original songs. You may use it for private study, scholarship, research or language learning purposes only