» » »

Anthony Green - Conversation Piece Tabs

Artists:  A B C D E F G H I J K L M N O P Q R S T U V W X Y Z # 

Conversation Piece Tabs

(ver. 1) Click to play this song!
Anthony Green
 Rating:
4/5 (4 votes)

 Conversation Piece lessons Tabs too difficult? Try these video lessons and learn fast
 
                -------------------------------------------------------------------------------
                              
-------------------------------------------------------------------------------

Tuning: Standard (EADGBE) There is also a live version where he plays it a whole step down (DGCFAD)
Tempo: 120 BPM     
Time Signature: 4/4

Let me know if there's any timing errors, or if you found a better chord. I based
this off a live video of him playing it acoustic by himself. Let's all appreciate the beauty of 
the Cmin7 chord...ahh, nice. 
Check out his new album Young Legs and thank you to 

"Transform old habits...."

e|-------0--0--0--0---|-------0--0--0--0---|--0---0-0--0-0-------------------| \
B|-------0--0--0--0---|-------0--0--0--0---|--1---1-1--1-1-------------------|  \  
G|-------0--0--0--0---|---0---0--0--0--0---|--2---2-2--2-2-------------------|   \  
D|---0---0--0--0--0---|---2---2--2--2--2---|--2---2-2--2-2----x2-------------|   /  4x
A|---2---2--2--2--2---|---3---3--3--3--3---|--0---0-0--0-0-------------------|  /
E|---3---3--3--3--3---|--------------------|---------------------------------| /

Chours: "And that Eureka feeling..."

e|-------0--0--0--0---|-------0--0--0--0---|--0---0-0--0-0-------------------|
B|-------0--0--0--0---|-------0--0--0--0---|--1---1-1--1-1-------------------|
G|-------0--0--0--0---|-------0--0--0--0---|--2---2-2--2-2-------------------|
D|---2---2--2--2--2---|---0---0--0--0--0---|--2---2-2--2-2-----x2------------|
A|---2---2--2--2--2---|---2---2--2--2--2---|--0---0-0--0-0-------------------|
E|---0---0--0--0--0---|---3---3--3--3--3---|---------------------------------|

  "long.."     
                                   End with
e|-------0--0--0--0-----|---\-----------------------0------------------------|
B|-------0--0--0--0-----|----\----------------------0------------------------|
G|---0---0--0--0--0-----|-----\---------------------0------------------------|
D|---2---2--2--2--2--x2-|-----/-Repeat Chorus-2x----2------------------------|
A|---3---3--3--3--3-----|----/----------------------3------------------------|
E|----------------------|---/------------------------------------------------|

Repeat intro: "Laid Our Foundation..."

e|-------0--0--0--0---|-------0--0--0--0---|--0---0-0--0-0-------------------| \
B|-------0--0--0--0---|-------0--0--0--0---|--1---1-1--1-1-------------------|  \  
G|-------0--0--0--0---|---0---0--0--0--0---|--2---2-2--2-2-------------------|   \  
D|---0---0--0--0--0---|---2---2--2--2--2---|--2---2-2--2-2----x2-------------|   /  4x
A|---2---2--2--2--2---|---3---3--3--3--3---|--0---0-0--0-0-------------------|  /
E|---3---3--3--3--3---|--------------------|---------------------------------| /

Chorus #2: "And that Eureka feeling..."

e|-------0--0--0--0---|-------0--0--0--0---|--0---0-0--0-0-------------------|
B|-------0--0--0--0---|-------0--0--0--0---|--1---1-1--1-1-------------------|
G|-------0--0--0--0---|-------0--0--0--0---|--2---2-2--2-2-------------------|
D|---2---2--2--2--2---|---0---0--0--0--0---|--2---2-2--2-2-----x2------------|
A|---2---2--2--2--2---|---2---2--2--2--2---|--0---0-0--0-0-------------------|
E|---0---0--0--0--0---|---3---3--3--3--3---|---------------------------------|
  
"long.."                This time end with this, and get louder every strum.

e|-------0--0--0--0-----|---\-----------------------0-0-0-0-0-0-0-0-0-0------|
B|-------0--0--0--0-----|----\----------------------0-0-0-0-0-0-0-0-0-0------|
G|---0---0--0--0--0-----|-----\---------------------0-0-0-0-0-0-0-0-0-0------|
D|---2---2--2--2--2--x2-|-----/-Repeat Chorus-2x----2-2-2-2-2-2-2-2-2-2------|
A|---3---3--3--3--3-----|----/----------------------3-3-3-3-3-3-3-3-3-3------|
E|----------------------|---/------------------------------------------------|

Bridge: "and there's no way I could ever..."

e|--0---0--0--0--0---|--0---0--0--0--0--|--0---0--0--0--0--|--0---0--0--0--0-| \
B|--0---0--0--0--0---|--0---0--0--0--0--|--1---1--1--1--1--|--0---0--0--0--0-|  \
G|--0---0--0--0--0---|--0---0--0--0--0--|--2---2--2--2--2--|--0---0--0--0--0-|   \
D|--2---2--2--2--2---|--0---0--0--0--0--|--2---2--2--2--2--|--2---2--2--2--2-|   /  3x
A|--2---2--2--2--2---|--2---2--2--2--2--|--0---0--0--0--0--|--3---3--3--3--3-|  /
E|--0---0--0--0--0---|--3---3--3--3--3--|------------------|-----------------| /

"is what's driving me away..."  

e|--0---0--0--0--0-|--0---0--0--0--0-|--0---0--0--0--0-|--0---0--0--0--0-----| \
B|--0---0--0--0--0-|--0---0--0--0--0-|--0---0--0--0--0-|--0---0--0--0--0-----|  \
G|--7---7--7--7--7-|--5---5--5--5--5-|--0---0--0--0--0-|--0---0--0--0--0-----|   \
D|--5---5--5--5--5-|--4---4--4--4--4-|--2---2--2--2--2-|--2---2--2--2--2-----|   / 3x
A|--7---7--7--7--7-|--5---5--5--5--5-|--3---3--3--3--3-|--3---3--3--3--3-----|  /
E|-----------------|-----------------|-----------------|---------------------| /

End with:

e|--0------------------------------------------------------------------------|
B|--0------------------------------------------------------------------------|
G|--0------------------------------------------------------------------------|
D|--2------------------------------------------------------------------------|
A|--3------------------------------------------------------------------------|
E|---------------------------------------------------------------------------|


************************************

| /   slide up
| \   slide down
| h   hammer-on
| p   pull-off
| ~   vibrato
| +   harmonic
| x   Mute note
| b   Bend


**alternate riffing**    Live Anthony tends to do this on the bridge. 
                        A small nuance but it sounds nice and dissonant.

"is what's driving me away..."  
                                                        **only different here**
e|--0---0--0--0--0-|--0---0--0--0--0-|--0---0--0--0--0-|--0---0--0--0--0-----| \
B|--0---0--0--0--0-|--0---0--0--0--0-|--0---0--0--0--0-|--0---0--0--0--0-----|  \
G|--7---7--7--7--7-|--5---5--5--5--5-|--0---0--0--0--0-|--0---3--3--3--3-----|   \
D|--5---5--5--5--5-|--4---4--4--4--4-|--2---2--2--2--2-|--2---2--2--2--2-----|   / 3x
A|--7---7--7--7--7-|--5---5--5--5--5-|--3---3--3--3--3-|--3---3--3--3--3-----|  /
E|-----------------|-----------------|-----------------|---------------------| /
            
Submit corrections


        Conversation Piece lessons Hard to play? Try these video lessons and learn fast Conversation Piece lessons
        
↑ Back to top | Tablatures and chords for acoustic guitar and electric guitar, ukulele, drums are parodies/interpretations of the original songs. You may use it for private study, scholarship, research or language learning purposes only