Home » A » Annie Lennox »

Annie Lennox - I Put A Spell On You Tabs

Artists:  A B C D E F G H I J K L M N O P Q R S T U V W X Y Z # 

I Put A Spell On You Tabs

(ver. 1) Click to play this song!
Annie Lennox
Tuning:EADGBE

e|---------------------------------------------------------------------------------------|
B|------------6~-------------------------------------------------------------------------|
G|------5--7------7\-------12b14--10------10--10-----------------------------------------|
D|---7--------------------------------12----------12~------------------------------------|
A|-----------------------------------------------------------10--10--8--5--8--8--5~----8\|
E|---------------------------------------------------------------------------------------|

e|---------------------------------------------------------------------------|
B|---15------15-------15------15------15------15--------18b20----------------|
G|-------14------14-------14------14------14------14-------------------------|
D|---------------------------------------------------------------------------|
A|---------------------------------------------------------------------------|
E|---------------------------------------------------------------------------|

e|-------------------------------------------------------17------------------|
B|---20--18--20b22br---18-------20b22br--18------18--20----------------------|
G|-------------------------19----------------19------------------------------|
D|---------------------------------------------------------------------------|
A|---------------------------------------------------------------------------|
E|---------------------------------------------------------------------------|

e|---------------------------------------------------------------------------|
B|---20--18------------------------------------------------------------------|
G|-----------19--17--19--17/14-----------------------------------------------|
D|-------------------------------17--15--17b19-------------------------------|
A|---------------------------------------------------------------------------|
E|---------------------------------------------------------------------------|

e|---------------------------------------------------------------------------|
B|---------------------------------------------------------------------------|
G|---------------------------------------------------------------------------|
D|---17b19br--15------15--15--12---------------------------------------------|
A|----------------17---------------------------------------------------------|
E|---------------------------------------------------------------------------|

e|---------------------------------------------------------------------------|
B|---------------------------------------------------------------------------|
G|---------------------------------------------------------------------------|
D|---12--10------------------------------------------------------------------|
A|-----------12--10------------------------8\--------------------------------|
E|-------------------13--10--13--10--8--5------------------------------------|            
Submit corrections

↑ Back to top | Tablatures and chords for acoustic guitar and electric guitar, ukulele, drums are parodies/interpretations of the original songs. You may use it for private study, scholarship, research or language learning purposes only