» » »

Anna Tsuchiya - Rose Tabs

Artists:  A B C D E F G H I J K L M N O P Q R S T U V W X Y Z # 

Rose Tabs

(ver. 1) Click to play this song!
Anna Tsuchiya
 Rating:
4/5 (9 votes)

 Rose lessons Tabs too difficult? Try these video lessons and learn fast
 
                -------------------------------------------------------------------------------
			     ROSE -  Anna Tsuchiya inspi’ NANA?BLACK STONE)
-------------------------------------------------------------------------------


Tuning: EADGBa

e|-----------------------------------------------------------------------------------------------------|
B|--3-3-3--3-3-3-3-3-3-3--3-3-3-3-3-3--3-3-3-3-3-3--3-3-3-3-3-3--3-3-3-3-3-3-3--3-3-3-3-3-3--3-3--3-3--|
G|--2-2-2--2-3-3-3-3-3-3---------------2-2-2-2-2-2--2-2-2-2-2-2--2-3-3-3-3-3-3---------------2-2--2-2--|
D|-----------------------------------------------------------------------------------------------------|
A|-----------------------------------------------------------------------------------------------------|
E|-----------------------------------------------------------------------------------------------------|


e|-----------------------------------------------------------------------------------------------------|
B|--3-3-3-3-3-3-3-3-3---5-5-5-5-5-5---3-3-3-3-3-3---5-5-5-5-5-5---3-3-3-3-3-3---3-3--3-3---------------|
G|--2-2-2-2-2-2-2-2-2---5-5-5-5-5-5---3-3-3-3-3-3---5-5-5-5-5-5---2-2-2-2-2-2---3-3--3-3---------------|
D|-----------------------------------------------------------------------------------------------------|
A|-----------------------------------------------------------------------------------------------------|
E|-----------------------------------------------------------------------------------------------------|
										x2

e|---------------------------------------------------------------------------|
B|---------------------------------------------------------------------------|
G|--------13-13-13-13-13-13-13-13-13-13--------------------------------------|
D|--3-3-3/13-13-13-13-13-13-13-13-13-13----7-7-7--9-XXXX/--------------------|
A|--3-3-3/10-10-10-10-10-10-10-10-10-10----7-7-7--9-XXXX/--------------------|
E|--1-1-1/---------------------------------5-5-5--9-XXXX/--------------------|
                       x3

e|------------------------------------------------------------------------------------|
B|------------------------------------------------------------------------------------|
G|------------------------------------------------------------------------------------|
D|--7-7-7-7-7-7-7-7-7---5-5-5-5-5-5-5-5-5---3-3-3-3-3-3-3-3-3---2-2-2-2-2-2-2-2-2-----|
A|--5-5-5-5-5-5-5-5-5---3-3-3-3-3-3-3-3-3---1-1-1-1-1-1-1-1-1---0-0-0-0-0-0-0-0-0-----|
E|--5-5-5-5-5-5-5-5-5---3-3-3-3-3-3-3-3-3---1-1-1-1-1-1-1-1-1---0-0-0-0-0-0-0-0-0-----|
										x2

e|---------------------------------------------------------------------------|
B|---------------------------------------------------------------------------|
G|--7-7-7-10-5-3-------------------------------------------------------------|
D|--7-7-7-10-5-3-------------------------------------------------------------|
A|--5-5-5-8--3-1--2-2-5-5-3-2------------------------------------------------|
E|---------------------------------------------------------------------------|
									x4



e|---------------------------------------------------------------------------|
B|---------------------------------------------------------------------------|
G|-7-7-7---------------------------------------------------------------------|
D|-7-7-7--7-6-5--3-5-3-5-4-3~--------7~~/3-----------------------------------|
A|-5-5-5-----------------------------5~~/1-----------------------------------|
E|-----------------------------------5~~/1-----------------------------------|
			x3


===============================================================================
            
Submit corrections


        Rose lessons Hard to play? Try these video lessons and learn fast Rose lessons
        
↑ Back to top | Tablatures and chords for acoustic guitar and electric guitar, ukulele, drums are parodies/interpretations of the original songs. You may use it for private study, scholarship, research or language learning purposes only