» » »

Anji - Dia Chords

Artists:  A B C D E F G H I J K L M N O P Q R S T U V W X Y Z # 

Dia Chords

(ver. 1) Click to play this song!
Anji
 Rating:
4.3/5 (6 votes)

 Dia  lessons Tabs too difficult? Try these video lessons and learn fast
 
                [Intro]
                 D                        C#m                          
e|--------------0h2------2-----4----4h5-------------------------------------|
B|---------------3-------3-----3-----------5-----5-----5--------------------|
G|---2--1h2------2----2-----2----2---------6-----6-----6-------2--1h2-------|
D|---------------0-------------------------6--6-----------------------------|
A|-----------------------------------------4--------4-----------------------|
E|--------------------------------------------------------------------------|

    D                           E
e|--0h2------2-----4----4h5-----7--------------------------------------------|
B|---3-------3-----3------------9--------------------------------------------|
G|---2----2-----2----2----------9--------------------------------------------|
D|---0--------------------------9--------------------------------------------|
A|------------------------------7--------------------------------------------|
E|---------------------------------------------------------------------------|

[Verse 1]
    A         E        F#m
Di suatu hari tanpa sengaja
        E
kita bertemu
D               C#m
Aku yang pernah terluka
Bm           E
kembali mengenal cinta

A           E       F#m
Hati ini kembali temukan
            E
senyum yang hilang
   D          E   A   D E
Semua itu karena dia


[Chorus]
     A   E         F#m
Oh Tuhan   kucinta dia
E            D         C#m           Bm       
  Ku sayang dia, rindu dia, inginkan dia
E        A   C#     F#m  E  D#m7b5
  Utuhkanlah   rasa cinta dihatiku
        D    E       A
Hanya padanya  untuk dia


[Interlude]
A E F#m C#m
D C#m Bm E


[Verse 2]
 A            E           F#m     E
Jauh waktu berjalan kita lalui bersama
D         C#m            Bm          E
Betapa di setiap hari ku jatuh cinta padanya
A         E           F#m       E
Di cintai oleh dia ku merasa sempurna
D         E      A    E
Semua itu karena dia


[Chorus]
     A  E         F#m
Oh Tuhan  kucinta dia
E           D          C#m           Bm       
  Ku sayang dia, rindu dia, inginkan dia
E        A  C#      F#m   E   D#m7b5
  Utuhkanlah   rasa cinta dihatiku
        D    E       A   E
Hanya padanya  untuk dia

     A   E         F#m
Oh Tuhan   kucinta dia
E           D          C#m           Bm       
  Ku sayang dia, rindu dia, inginkan dia
E        A   C#      F#m  E  D#m7b5
  Utuhkanlah    rasa cinta dihatiku
         D   E       A 
Hanya padanya  untuk dia

D          Bm            E
  Hanya padanya  aaa  aaa
      A
untuk dia


[Outro]
D A






            
Submit corrections


        Dia  lessons Hard to play? Try these video lessons and learn fast Dia  lessons
        
↑ Back to top | Tablatures and chords for acoustic guitar and electric guitar, ukulele, drums are parodies/interpretations of the original songs. You may use it for private study, scholarship, research or language learning purposes only