» » »

Angels - Back On You Tabs

Artists:  A B C D E F G H I J K L M N O P Q R S T U V W X Y Z # 

Back On You Tabs

(ver. 1) Click to play this song!
Angels
 Rating:
3.3/5 (26 votes)

 Back On You  lessons Tabs too difficult? Try these video lessons and learn fast
 
                Tuning: Standard


Intro: 
e|---------------------------------------------------|
B|--------------------------3-3-3--------------------|
G|--------------2-----------2-2-2-----2--------------|
D|--2-----------2-------3-2-0-0-0-----2-----2--------|
A|--2-------3-2-0-0-2-3-----------3-2-0-----2-----2--|
E|--0-0-2-3-----------------------------3-2-0-2-3----|
(repeats until verse)

NB: at the end of the intro, the last three notes are not played to 
allow for the first power chords in the verse to be played. Therefore:
e|---------------------------------------------------|
B|--------------------------3-3-3--------------------|
G|--------------2-----------2-2-2-----2--------------|
D|--2-----------2-------3-2-0-0-0-----2-----2--------|
A|--2-------3-2-0-0-2-3-----------3-2-0-----2--------|
E|--0-0-2-3-----------------------------3-2-0--------|

Primary Verse:
e|-------------------------------|
B|-------------------------------|
G|-------------------------------|
D|--7-8-9x-x-x-9x-x-x-9x-x-x-9x--|
A|--7-8-9x-x-x-9x-x-x-9x-x-x-9x--|
E|--5-6-7x-x-x-7x-x-x-7x-x-x-7x--|
(repeats until chorus)

NB: the primary verse changes into the secondary verse after two 
full cycles of the primary verse. (however, for the second verse in the song, 

Secondary Verse:
e|-----------------|
B|-----------------|
G|-----------------|
D|--7-8-9x-x-x-9x--|
A|--7-8-9x-x-x-9x--|
E|--5-6-7x-x-x-7x--|


Bridge #1:
e|-----------------------------------------------------|
B|--------------------------------3-3x-3--3x-3x-3-3-3--|
G|--9--9--9-9-9-9-/-5--5--5-5-5-5-2-4x-2--4x-2x-0-2-4--|
D|--9--9--9-9-9-9-/-5--5--5-5-5-5-0-0x-0--0x-0x-0-0-0--|
A|--7--7--7-7-7-7-/-3--3--3-3-3-3----------------------|
E|-----------------------------------------------------|

Bridge #2:
e|------------------------------------------------------------------|
B|------------------------------------------------------------------|
G|--9--9--9-9-9-9-/-4--4--4-4-4-4-/--5--5--5-5-5-5-/-7--7--7-7-7-7--|
D|--9--9--9-9-9-9-/-4--4--4-4-4-4-/--5--5--5-5-5-5-/-7--7--7-7-7-7--|
A|--7--7--7-7-7-7-/-2--2--2-2-2-2-/--3--3--3-3-3-3-/-5--5--5-5-5-5--|
E|------------------------------------------------------------------|

and the chorus is the same a the intro.
            
Submit corrections


        Back On You  lessons Hard to play? Try these video lessons and learn fast Back On You  lessons
        
↑ Back to top | Tablatures and chords for acoustic guitar and electric guitar, ukulele, drums are parodies/interpretations of the original songs. You may use it for private study, scholarship, research or language learning purposes only