» » »

Angels - Marseille Bass

Artists:  A B C D E F G H I J K L M N O P Q R S T U V W X Y Z # 

Marseille Bass

(ver. 1) Click to play this song!
Angels
 Rating:
4/5 (4 votes)

 Marseille lessons Tabs too difficult? Try these video lessons and learn fast
 
                Angel City Marseille

Intro
G:|---------|-----2/14--|--------|----2/14--|-------------|
D:|---------|-----------|--------|----------|-------------|
A:|---------|-----------|--------|----------|-------------|
E:|---------|-----------|--------|----------|-55-55-55-55-|

First Verse
   got me a box…
G:|-------------|
D:|-------------|(repeat)
A:|-------------|
E:|-55-55-55-55-|

Chorus
   gimme the sound of rollin dice gimme the whisky…
G:|--------------------------------|---------------------------------|
D:|--------------------------------|---------------------------------|
A:|-2-3-5-5-5-5-5-5----------------|-2-3-5-5-5-5-5-5-----------------|
E:|-----------------3-3-3-3-3-3-3-3|------------------3-3-3-3-3-3-3-3|


  gimme the card… ..…my blues away ………………….take me away to Marseille
G:|--------------------------------|-------------------------|-------------|
D:|--------------------------------|-------------------------|-------------|
A:|-2-3-5-5-5-5-5-5----------------|-------------------------|-------------|
E:|-----------------3-3-3-3-0-0-0-0|-/12---------------------|-55-55-55-55-|

Second Verse (same as first)
Chorus

Intro to lead break
G:|-------------|
D:|-------------|(8X)
A:|-------------|
E:|-55-55-55-55-|

   Lead break
G:|-----------|------------|-----------|------------|
D:|-----------|------------|-----------|------------|
A:|----0/5-~--|------------|----0/5-~--|------------|
E:|-5-5-------|--3--3--3---|-5-5-------|--3--3--3---|
                           take me away to marseille
G:|-----------|-------------|-----------------------|
D:|-----------|-5-4-2-------|-----------------------|
A:|----0/5-~--|------5-7/19-|---let ring------------|
E:|-5-5-------|-------------|-----------------------|

G:|-------------|-------------|-------------|--------------|
D:|-------------|-------------|-------------|---------5-77-|
A:|-------------|-------------|-------------|-----5-7------|
E:|-55-55-55-55-|-55-55-55-55-|-55-55-55-55-|-55-----------|

Third Verse
   Fast train jet plane…………don’t ask the reason why
G:|-------------|-------------|-------------|-------------|
D:|-77-77-77-77-|-77-77-77-77-|-77-77-77-77-|-77-----5-77-|
A:|-------------|-------------|-------------|----5-7------|
E:|-------------|-------------|-------------|-------------|


   drinkin’ champagne playin’………don’t even have to try
G:|-------------|-------------|-------------|-------------|
D:|-77-77-77-77-|-77-77-77-77-|-77-77-77-77-|-77-----5-77-|repeat
A:|-------------|-------------|-------------|----5-7------|
E:|-------------|-------------|-------------|-------------|

Chorus

Bridge

   ah beau soir mademoiselle…
G:|---------------|-------------------|------------|-----------------|
D:|---------------|----------17-19-19-|------------|-17--------------|
A:|---------------|-----17-19---------|-19-19-19---|---19-17---------|
E:|---------------|-5/17--------------|---------17-|--------19-17-55-|

Outro
G:|-------------|-------------|-------------|-------------|
D:|-------------|-------------|-------------|--------5-77-|
A:|-------------|-------------|-------------|----5-7------|
E:|-55-55-55-55-|-55-55-55-55-|-55-55-55-55-|-55----------|

G:|-------------|-------------|-------------|-------------|
D:|-77-77-77-77-|-77-77-77-77-|-77-77-77-77-|-77-----5-77-|
A:|-------------|-------------|-------------|----5-7------|
E:|-------------|-------------|-------------|-------------|

G:|-------------|-------------|-------------|-------------|
D:|-77-77-77-77-|-77-77-77-77-|-----5-7--12-|-------------|
A:|-------------|-------------|---7---------|-------------|
E:|-------------|-------------|-5-----------|-55-55-55-55-|
            
Submit corrections


        Marseille lessons Hard to play? Try these video lessons and learn fast Marseille lessons
        
↑ Back to top | Tablatures and chords for acoustic guitar and electric guitar, ukulele, drums are parodies/interpretations of the original songs. You may use it for private study, scholarship, research or language learning purposes only