Home » A » Angelic Upstarts »

Angelic Upstarts - Kids On The Street Tabs

Artists:  A B C D E F G H I J K L M N O P Q R S T U V W X Y Z # 

Kids On The Street Tabs

(ver. 1) Click to play this song!
Angelic Upstarts
-----------------------------------------------------------------
-----------------------------------------------------------------

Tuning:Standard

Intro:
e|---------------------------------------------------------------|
B|---------------------------------------------------------------|
G|---7-121212----------------------------------------------------|
D|-7-7-121212----------------------------------------------------|
A|-7-5-101010----------------------------------------------------|
E|-5-------------------------------------------------------------|

Verse:
e|---------------------------------------------------------------|
B|---------------------------------------------------------------|
G|---------777-12121212------------------------------------------|
D|-7777777-777-12121212------------------------------------------|
A|-7777777-555-10101010------------------------------------------|
E|-5555555-------------------------------------------------------|

Chorus:
e|---------------------------------------------------------------|
B|---------------------------------------------------------------|
G|---------------------------999999999999------------------------|
D|-101010101010-121212121212-999999999999------------------------|
A|-101010101010-121212121212-777777777777------------------------|
E|--8-8-8-8-8-8-101010101010-------------------------------------|

Bridge:
e|---------------------------------------------------------------|
B|---------------------------------------------------------------|
G|-11-9----------------------------------------------------------|
D|-11-9-13-11----------------------------------------------------|
A|--9-7-13-11----------------------------------------------------|
E|------11--9----------------------------------------------------|

End:
e|---------------------------------------------------------------|
B|---------------------------------------------------------------|
G|-6666----------------------------------------------------------|
D|-6666----------------------------------------------------------|
A|-4444----------------------------------------------------------|
E|---------------------------------------------------------------|

| / slide up
| \ slide down
| h hammer-on
| p pull-off
| ~ vibrato
| + harmonic
| x Mute note
            
Submit corrections

↑ Back to top | Tablatures and chords for acoustic guitar and electric guitar, ukulele, drums are parodies/interpretations of the original songs. You may use it for private study, scholarship, research or language learning purposes only