Home » A » An Endless Sporadic »

An Endless Sporadic - Cyclone Escape Tabs

Artists:  A B C D E F G H I J K L M N O P Q R S T U V W X Y Z # 

Cyclone Escape Tabs

(ver. 1) Click to play this song!
An Endless Sporadic
 Rating:
4/5 (4 votes)
                Tuning: Drop D

Intro (Clean Fuzz)
e|---------------------------------------------------------------------------|
B|---------------------------------------------------------------------------|
G|---------------------------------------------------------------------------|
D|8--8----8-8-8---7--7-7---7-7--7-7-7--8--8----8-8-8---10-1010--1010-7-7-7---|
A|10-10---101010--10-1010--1010-9-9-9--10-10---101010--12-1212--1212-9-9-9---|
D|0--0----0-0-0---0--0-0---0-0--0-0-0--0--0----0-0-0---0--0-0---0-0--0-0-0---|

e|---------------------------------------------------------------------------|
B|---------------------------------------------------------------------------|
G|---------------------------------------------------------------------------|
D|8--8----8-8-8---7--7-7---7-7--7-7-7--8--8----8-8-8---10--------------------|
A|10-10---101010--10-1010--1010-9-9-9--10-10---101010--12--------------------|
D|0--0----0-0-0---0--0-0---0-0--0-0-0--0--0----0-0-0---0---------------------|

Ruff Riff (Distortion)
e|---------------------------------------------------------------------------|
B|---------------------------------------------------------------------------|
G|---------------------------------------------------------------------------|
D|----8------8------8----11--10--9------8------8-----8----7---8--------------|
A|----10-----10-----10---13--12--11-----10-----10----10---9---10---X2--------|
D|000-0--000-0--000-0-00-0-0-0-0-0--000-0--000-0-000-0-00-0-0-0--------------|
  ***    ***    ***   **   *   *    ***    ***   ***   **   * 
Here We Go
e|---------------------------------------------------------------------------|
B|---------------------------------------------------------------------------|
G|---------------------------------------------------------------------------|
D|0-0-333-7-1010--33-0-00-33-0-------------------------------------X3--------|
A|0-0-333-7-1010--33-0-00-33-0-----------------------------------------------|
D|0-0-333-7-1010--33-0-00-33-0-----------------------------------------------|
                   *   **  * 
Chug-a-Lug
e|---------------------------------------------------------------------------|
B|---------------------------------------------------------------------------|
G|---------------------------------------------------------------------------|
D|8-8-8-8-8-8-8-8--7-7-7--7-77--8-8-8-8-8-8-8-8--101010-1010-------X2--------|
A|1010101010101010-101010-9-99--1010101010101010-121212-1212-----------------|
D|0-0-0-0-0-0-0-0--0-0-0--0-00--0-0-0-0-0-0-0-0--0-0-0--0-0------------------|
  * * * * * * * *  * * *  * **  * * * * * * * *  * * *  * *
Lug Without the Chug
e|---------------------------------------------------------------------------|
B|---------------------------------------------------------------------------|
G|---------------------------------------------------------------------------|
D|8--8----8-8-8-x--7--7-7---7-7-x-7-7--8--8----8-8-8-x--10-1010--1010x-7-7---|
A|10-10---101010x--10-1010--1010x-9-9--10-10---101010x--12-1212--1212x-9-9---|
D|0--0----0-0-0-x--0--0-0---0-0-x-0-0--0--0----0-0-0-x--0--0-0---0-0-x-0-0---|

e|---------------------------------------------------------------------------|
B|---------------------------------------------------------------------------|
G|---------------------------------------------------------------------------|
D|8--8----8-8-8-x--7--7-7---7-7-x-7-7--8--8----8-8-8---1010-10---------------|
A|10-10---101010x--10-1010--1010x-9-9--10-10---101010--1212-12---------------|
D|0--0----0-0-0-x--0--0-0---0-0-x-0-0--0--0----0-0-0---0-0--0----------------|

Here We Go Again
e|---------------------------------------------------------------------------|
B|---------------------------------------------------------------------------|
G|---------------------------------------------------------------------------|
D|0-0-333-7-1010--33-0-00-33-0-------------------------------------X3--------|
A|0-0-333-7-1010--33-0-00-33-0-----------------------------------------------|
D|0-0-333-7-1010--33-0-00-33-0-----------------------------------------------|
                   *   **  * 

Ruffer Riff (Distortion)
e|---------------------------------------------------------------------------|
B|---------------------------------------------------------------------------|
G|---------------------------------------------------------------------------|
D|----8------8------8----11--10--9------8------8-----8----7---8--------------|
A|----10-----10-----10---13--12--11-----10-----10----10---9---10---X2--------|
D|000-0--000-0--000-0-00-0-0-0-0-0--000-0--000-0-000-0-00-0-0-0--------------|
  ***    ***    ***   **   *   *    ***    ***   ***   **   *             
Submit corrections

↑ Back to top | Tablatures and chords for acoustic guitar and electric guitar, ukulele, drums are parodies/interpretations of the original songs. You may use it for private study, scholarship, research or language learning purposes only