» » »

Ane Brun - Halo Tabs

Artists:  A B C D E F G H I J K L M N O P Q R S T U V W X Y Z # 

Halo Tabs

(ver. 2) Click to play this song!
Ane Brun
 Rating:
2.9/5 (25 votes)

 Halo lessons Tabs too difficult? Try these video lessons and learn fast
 
                Tuning: Standard

Capo 3

     G          
e|------------------------------------------------|
B|-------0--------------------0-------------------|
G|------------------------------------------------|
D|------------------------------------------------|
A|-----2-------2------------2-------2-------------|
E|---3-------3------------3-------3---------------|


     Am
e|------------------------------------------------|
B|-------1--------------------1-------------------|
G|------------------------------------------------|
D|-----2-------2------------2-------2-------------|
A|---0-------0------------0-------0---------------|
E|------------------------------------------------|


     Em
e|------------------------------------------------|
B|------------------------------------------------|
G|-------0--------------------0-------------------|
D|------------------------------------------------|
A|-----2-------2------------2-------2-------------|
E|---0-------0------------0-------0---------------|


     C
e|------------------------------------------------|
B|------------------------------------------------|
G|------------------------------------------------|
D|-------2--------------------2-------------------|
A|-----3-------3------------3-------3-------------|
E|---0-------0------------0-------0---------------|            
Submit corrections


        Halo lessons Hard to play? Try these video lessons and learn fast Halo lessons
        
↑ Back to top | Tablatures and chords for acoustic guitar and electric guitar, ukulele, drums are parodies/interpretations of the original songs. You may use it for private study, scholarship, research or language learning purposes only