» » »

Andy Williams - Moon River Tabs

Artists:  A B C D E F G H I J K L M N O P Q R S T U V W X Y Z # 

Moon River Tabs

(ver. 1) Click to play this song!
Andy Williams
 Rating:
4.2/5 (30 votes)

 Moon River lessons Tabs too difficult? Try these video lessons and learn fast
 
                [Verse]
e|------------------------------------------------------------|
B|---9/12-10--/12-10--------------/12-10----------------------|
G|-/9----------------12-10-12-------------12-10-12------------|
D|----------------------------10--------------------10--12----|
A|------------------------------------------------------------|
E|------------------------------------------------------------|

e|--------------------------------------------------------------------------------|
B|------------------------------------------------------12br-12--10-12-10-----10--|
G|/9---------10/12-9------------10/12-9-----------9-12---------------------12-----|
D|---10-10----------9/12-10-10-----------9/12-10----------------------------------|
A|--------------------------------------------------------------------------------|
E|--------------------------------------------------------------------------------|

[Chorus]
e|----------------------------------------------------------------------|
B|---9/12-10---9/12-10-----------------9/12-10--------------------------|
G|-/9-------------------10--12--10-------------12-10-12-----------------|
D|----------------------------------10--------------------10---12-------|
A|----------------------------------------------------------------------|
E|----------------------------------------------------------------------|

e|-------------------------------------------------------------------------------------------------------|
B|----------------13--13br-13------9/12-10------------------9/12-10--------------------------------------|
G|-9------9--12----------------12------------12--10--12--------------12-10-12--------10/12-9-------------|
D|----10-------------------------------------------------10---------------------10-------------12----10--|
A|-------------------------------------------------------------------------------------------------------|
E|-------------------------------------------------------------------------------------------------------|

            
Submit corrections


        Moon River lessons Hard to play? Try these video lessons and learn fast Moon River lessons
        
↑ Back to top | Tablatures and chords for acoustic guitar and electric guitar, ukulele, drums are parodies/interpretations of the original songs. You may use it for private study, scholarship, research or language learning purposes only