» » »

And So I Watch You From Afar - Run Home Tabs

Artists:  A B C D E F G H I J K L M N O P Q R S T U V W X Y Z # 

Run Home Tabs

(ver. 1) Click to play this song!
And So I Watch You From Afar
 Rating:
4.3/5 (26 votes)

 Run Home lessons Tabs too difficult? Try these video lessons and learn fast
 
                D|-------0-2-4-|
A|-0-2-4-------|
F|-------------|
C|-------------|
G|-------------|
C|-------------|


D|-------0-5-7-|
A|-0-5-7-------|
F|-------------|
C|-------------|
G|-------------|
C|-------------|


D|-------0-7-9-|
A|-0-7-9-------|
F|-------------|
C|-------------|
G|-------------|
C|-------------|


D|--------0-9-11-|
A|-0-9-12--------|
F|---------------|
C|---------------|
G|---------------|
C|---------------|


D|---------0-12-14-|
A|-0-12-14---------|
F|-----------------|
C|-----------------|
G|-----------------|
C|-----------------|


D|---------0-14-16-|
A|-0-14-16---------|
F|-----------------|
C|-----------------|
G|-----------------|
C|-----------------|


D|---------0-17-19-|
A|-0-17-19---------|
F|-----------------|
C|-----------------|
G|-----------------|
C|-----------------|


D|---------0-17-19-|
A|-0-17-19---------|
F|-----------------|
C|-----------------|
G|-----------------|
C|-----------------|

Repeat 1 time and then:

D|-14--14--14-11-12-14--14--14-11-12-14--14--14-11-12-19--16-------11-12-13-|
A|-----------------------------------------------------------12-14----------|
F|--------------------------------------------------------------------------|
C|--------------------------------------------------------------------------|
G|--------------------------------------------------------------------------|
C|--------------------------------------------------------------------------|


D|-14--14--14-11-12-14--14--14-11-12-14--14--14-11-12-19--16-------11-12-13-|
A|-----------------------------------------------------------12-14----------|
F|--------------------------------------------------------------------------|
C|--------------------------------------------------------------------------|
G|--------------------------------------------------------------------------|
C|--------------------------------------------------------------------------|


D|-14--14--14-11-12-14--14--14-11-12------------11----------------|
A|-----------------------------------14--14--14-----12--12--12/9^-|
F|----------------------------------------------------------------|
F|----------------------------------------------------------------|
G|----------------------------------------------------------------|
C|----------------------------------------------------------------|


D|-14--14--14-11-12-14--14--14-11-12-14--14--14-11-12-19--16-------11-12-13-|
A|-----------------------------------------------------------12-14----------|
F|--------------------------------------------------------------------------|
C|--------------------------------------------------------------------------|
G|--------------------------------------------------------------------------|
C|--------------------------------------------------------------------------|


D|-14--14--14-11-12-14--14--14-11-|
A|--------------------------------|
F|--------------------------------|
C|--------------------------------|
G|--------------------------------|
C|--------------------------------|

In sextuplets:

D|-------0-2-4-------0-2-4-------0-5-7-------0-5-7-|
A|-0-2-4-------0-2-4-------0-5-7-------0-5-7-------|
F|-------------------------------------------------|
C|-------------------------------------------------|
G|-------------------------------------------------|
C|-------------------------------------------------|

Solo:

D|-----------------0-2-4/7--4-7-4-7/9--7--9-9/11-9-|
A|-4^4-2-----0-2-4---------------------------------|
F|-------4-4---------------------------------------|
C|-------------------------------------------------|
G|-------------------------------------------------|
C|-------------------------------------------------|


D|-14-11-7----14-11------11-12-14-14-12-11-11-|
A|---------9--------12---12-14-16-16-14-12-12-|
F|--------------------------------------------|
C|--------------------------------------------|
G|--------------------------------------------|
C|--------------------------------------------|

With pitchshifter and fastpicking:

D|-11-14-///-14-18-////-16-19-///-18-21-////^-|
A|--------------------------------------------|
F|--------------------------------------------|
C|--------------------------------------------|
G|--------------------------------------------|
C|--------------------------------------------|


D|-19-14-16----------------|
A|-------------14-16-14----|
F|----------16----------16-|
C|-------------------------|
G|-------------------------|
C|-------------------------|


D|-19-16////^-|
A|------------|
F|------------|
C|------------|
G|------------|
C|------------|

Overlapped by these sextuplets:

D|-------0-2-4-------0-2-4-------0-5-7-------0-5-7-|
A|-0-2-4-------0-2-4-------0-5-7-------0-5-7-------|
F|-------------------------------------------------|
C|-------------------------------------------------|
G|-------------------------------------------------|
C|-------------------------------------------------|


D|-14--14--14-11-12-14--14--14-11-12-14--14--14-11-12-19--16-------11-12-13-|
A|-----------------------------------------------------------12-14----------|
F|--------------------------------------------------------------------------|
C|--------------------------------------------------------------------------|
G|--------------------------------------------------------------------------|
C|--------------------------------------------------------------------------|


D|-14--14--14-11-12-14--14--14-11-12------------11---------------|
A|-----------------------------------14--14--14-----12--12--12/9-|
F|---------------------------------------------------------------|
F|---------------------------------------------------------------|
G|---------------------------------------------------------------|
C|---------------------------------------------------------------|


D|-14--14--14-11-12-14--14--14-11-12-14--14--14-11-12-19--16-------11-12-13-|
A|-----------------------------------------------------------12-14----------|
F|--------------------------------------------------------------------------|
C|--------------------------------------------------------------------------|
G|--------------------------------------------------------------------------|
C|--------------------------------------------------------------------------|


D|-0-|
A|-0-|
F|-1-|
C|-2-|
G|-2-|
C|-0-|












Niall Kennedy

Drop C Tuning CGCFAD

8 times in sextuplets each:

D|-------0-2-4-|
A|-0-2-4-------|
F|-------------|
C|-------------|
G|-------------|
C|-------------|


D|-------0-5-7-|
A|-0-5-7-------|
F|-------------|
C|-------------|
G|-------------|
C|-------------|


D|-------0-7-9-|
A|-0-7-9-------|
F|-------------|
C|-------------|
G|-------------|
C|-------------|


D|--------0-9-11-|
A|-0-9-12--------|
F|---------------|
C|---------------|
G|---------------|
C|---------------|

Repeat 1 time and then:

D|-11-11-11-0--11-11-11--0-11-11-11-0--16-12-------------12-|
A|-0--0--0--12-0--0----12--0--0--0--12-------------12-14----|
F|-------------------------------------------13-14----------|
C|----------------------------------------------------------|
G|----------------------------------------------------------|
C|----------------------------------------------------------|


D|-11-11-11-0--11-11-11--0-11-11-11-0--16-12-------------12-|
A|-0--0--0--12-0--0----12--0--0--0--12-------------12-14----|
F|-------------------------------------------13-14----------|
C|----------------------------------------------------------|
G|----------------------------------------------------------|
C|----------------------------------------------------------|


D|-11-11-11-0--11-11-11--0-11-11-11-0--11-11-11-0---|
A|-0--0--0--12-0--0----12--0--0--0--12-0--0--0--12^-|
F|--------------------------------------------------|
C|--------------------------------------------------|
G|--------------------------------------------------|
C|--------------------------------------------------|


D|-11-11-11-0--11-11-11--0-|
A|-0--0--0--12-0--0----12--|
F|-------------------------|
C|-------------------------|
G|-------------------------|
C|-------------------------|

In sextuplets:

D|-------0-7-9-------0-7-9--------0-9-11--------0-9-11-|
A|-0-7-9-------0-7-9-------0-9-12--------0-9-12--------|
F|-----------------------------------------------------|
C|-----------------------------------------------------|
G|-----------------------------------------------------|
C|-----------------------------------------------------|

Solo chords:

   A    Bm    D     F#m  A    Bm
D|-------------------------------|
A|-------------------------------|
F|-8----9-----13----4----8----9--|
C|-------------------------------|
G|-------------------------------|
C|-9----11----14----6----9----11-|

2 times and then:

D|-11-11-11-0--11-11-11--0-11-11-11-0--16-12-------------12-|
A|-0--0--0--12-0--0----12--0--0--0--12-------------12-14----|
F|-------------------------------------------13-14----------|
C|----------------------------------------------------------|
G|----------------------------------------------------------|
C|----------------------------------------------------------|


D|-11-11-11-0--11-11-11--0-11-11-11-0--11-11-11-0---|
A|-0--0--0--12-0--0----12--0--0--0--12-0--0--0--12^-|
F|--------------------------------------------------|
C|--------------------------------------------------|
G|--------------------------------------------------|
C|--------------------------------------------------|


D|-11-11-11-0--11-11-11--0-11-11-11-0--16-12-------------12-|
A|-0--0--0--12-0--0----12--0--0--0--12-------------12-14----|
F|-------------------------------------------13-14----------|
C|----------------------------------------------------------|
G|----------------------------------------------------------|
C|----------------------------------------------------------|


D|----|
A|----|
F|-13-|
C|-14-|
G|-14-|
C|----|
            
Submit corrections


        Run Home lessons Hard to play? Try these video lessons and learn fast Run Home lessons
        
↑ Back to top | Tablatures and chords for acoustic guitar and electric guitar, ukulele, drums are parodies/interpretations of the original songs. You may use it for private study, scholarship, research or language learning purposes only