Home » A » Andrew York »

Andrew York - 8 Discernments - Willow Tabs

Artists:  A B C D E F G H I J K L M N O P Q R S T U V W X Y Z # 

8 Discernments - Willow Tabs

(ver. 1) Click to play this song!
Andrew York
Author : Andrew York
Title : Willow

This is a very nice melodic piece by Andrew . When you close your eyes you can
here the willow move its leafs in the wind. Have fun Michael :-)

[see below tab for Notes]

Normal Tuning

------------------------------------------------------------2-----------2-0----|
------0-1-0---0--------0-----0-1-0---0--------0-1-3---0---3---3---0---3--------|
------------2--------0-------------2--------0----------------------------------|
----1--------------0-------1--------------0------------------------------------|
--0----------------------0--------------------------2-----------3-----------0--|
-----------------3---------------------3---------------------------------------|

-------------------|-----------------------------------------------------------|
--1-0--------------|---0-1------0-1-0-1--------0-1---0--------0----------------|
------2-0-2-------*|-2-----------------------------2------------2-0-0----------|
--------------0---*|----------2-------------1-------------0----------------2---|
-------------------|--------0-------------0------------------------------2-----|
------------2---(3)|------------------------------------3--------------0-------|

--------------------------------0-----------0-2-3-------2-3-0-2----------------|
----------------0-1-------0-1-3-----------3----------0--------------3---0------|
-0--2-------0-2----------------------0-----------------------------------------|
---------3-------------2---------------------------2------------0--------------|
-------0-------------0-------------3----------------------------------2--------|
---------------------------------------------------------------------------3---|

----0-------0-2------------------------------------|-------------------------||
----------------3----0---------1-------------------|-------------------------||
--------0------------------0--------2-------------*|---0---------------------||
-------------------------------------------0------*|-------------------------||
------3-----------2--------------0-----------------|-------------------------||
-----------------------3-----0--------2------(3)---|---3---------------------||

Notes on order -

Play the first part and repeat it as indicated. Don't play the note in brackets
the second time you play this. Continue with the second part.Then repeat the
whole thing 'till the end without playing the notes in brackets and go to the
ending chord.
            
Submit corrections

↑ Back to top | Tablatures and chords for acoustic guitar and electric guitar, ukulele, drums are parodies/interpretations of the original songs. You may use it for private study, scholarship, research or language learning purposes only