Home » A » Andrew Garcia »

Andrew Garcia - Straight Up Tabs

Artists:  A B C D E F G H I J K L M N O P Q R S T U V W X Y Z # 

Straight Up Tabs

(ver. 1) Click to play this song!
Andrew Garcia
----------------------------------------------
 "Straight Up" (Paula Abdul) - Andrew Garcia
----------------------------------------------


Tuning: Capo 9th (standard)

   ENTIRE SONG    
e|--0--0--0--0---| 
B|--0--1--1--0---|
G|--0--2--0--2---|
D|--2--2--2--1---|
A|--2--0--3--0---|
E|--0--------2---|

Thanks for CrazyChords for the correction! Good lookin out.
            
Submit corrections

↑ Back to top | Tablatures and chords for acoustic guitar and electric guitar, ukulele, drums are parodies/interpretations of the original songs. You may use it for private study, scholarship, research or language learning purposes only